Song name
# A B C D E F G H I J K L M N O P Q R S T U V W X Y Z

Mogwai - Kids Will Be Skeletons tab

Mogwai - Kids Will Be Skeletons

Part 1
guitar 1
e|----------------------|
B|--------3----------2--|
G|--2----------2--------|
D|-----2--0-------2--0--|
A|--0----------0--------|
E|----------------------|

guitar 2:

e|----------------------------------|
B|----------2---------------3-------|
G|------2-----2---------2-----2-----|
D|----2---2-----2---0-2---2-----2-0-|
A|--0-------------0-----------------|
E|----------------------------------|

Keyboard plays

A D A Amaj7

Part 2

e|--5--0--10--5--0--9-|
B|--------------------|
G|--------------------|
D|--------------------|
A|--------------------|
E|--------------------|

Other Guitar

e|-------------------------------|
B|-2-2-2-2-2-2-2-3-3-3-3-3-3-3-3-|
G|-------------------------------|
D|-------------------------------|
A|-------------------------------|
E|-------------------------------|

e|-------------------------------|
B|-2-2-2-2-2-2-2-0---------------|
G|-----------------2-2-2-2-2-2-2-|
D|-------------------------------|
A|-------------------------------|
E|-------------------------------|

Part 3 (Artificial Harmonics)


e|----------------------|
B|--------3--------2----|
G|--2--------2----------|
D|-----2--------2-------|
A|----------------------|
E|----------------------|

then more or less mix and match for the rest of the song, listen to cd for order
Tap to rate this tab
# A B C D E F G H I J K L M N O P Q R S T U V W X Y Z