Guitaretab - guitar tabs
Song name
# A B C D E F G H I J K L M N O P Q R S T U V W X Y Z

Mogwai - Hunted By A Freak tab

Author/Artist: Mogwai
Title: Hunted by a Freak
Album: Happy Songs for Happy People
Transcribed by: Graham Gahs-Hill
Email: graham@ranchodiablo.net

This is one of my favorite Mogwai tunes. You're going to need a delay pedal to get some 
the parts to sound right,
but most of it is pretty straightforward. As with many Mogwai songs, the other 
add layers to some fairly
repetitive guitar parts.

There are two guitars playing through almost the entire song, so I've transcribed the 
recognizable parts
(there are points where a guitar is playing, but is almost completely lost in the mix). 
with all tablature,
listen to the album to get the timing right.

Feel free to e-mail me with comments, corrections, love letters, death threats, whatever.


|-------------------------------4---3-----3-----3---3-----3-----3---3-----3-----0----0-----0-----0|
|-------------------------------------0-----0---------0-----0---------0-----0----------5-----5----|
|-------------------------------------------------------------------------------------------------|
|-------------------------------------------------------------------------------------------------|
|-----------------------------4---3-----3-----3---3-----3-----3-------------------/7-----7-----7--|
|-----------------------------------------------------------------3-----3-----3-------------------|
 .                          .

|---0-----0-----0---0-----0-----0---0-----0-----0---0-----0-----0----0-----0-----0-------0---0--|
|-----4-----4---------3-----3---------3-----3---------3-----3----------5-----5-----5---5-------5|
|-----------------------------------------------------------------------------------------------|
|-----------------------------------------------------------------------------------------------|
|-4-----4-----4---3-----3-----3---3-----3-----3-------------------/7-----7-----7-----7-----7----|
|-------------------------------------------------3-----3-----3---------------------------------|
  *DRUMS ENTER

|-----4-----4-----4---3-----3-----3---3-----3-----3---3-----3-----0----0-----0-----0|
|-------0-----0---------0-----0---------0-----0---------0-----0----------5-----5----|
|-----------------------------------------------------------------------------------|
|-----------------------------------------------------------------------------------|
|---4-----4-----4---3-----3-----3---3-----3-----3-------------------/7-----7-----7--|
|---------------------------------------------------3-----3-----3-------------------|


|---4-----4-----4---3-----3-----3---3-----3-----3---3-----3-----0----0-----0-----3-----3-----3-----|
|-----4-----4---------3-----3---------3-----3---------3-----3----------5-----5-----5-----5-----5---|
|--------------------------------------------------------------------------------------------------|
|--------------------------------------------------------------------------------------------------|
|-4-----4-----4---3-----3-----3---3-----3-----3-------------------/7-----7-----7-----7-----7-------|
|-------------------------------------------------3-----3-----3------------------------------------|


|-----------------------------------------------------------------|
|-10**-----12****-----10**-----12****-----10****-----15*----------|
|------------------------------------------------------------9**--|
|-----------------------------------------------------------------|
|-----------------------------------------------------------------|
|-----------------------------------------------------------------|
 NOTE: You're going to need a delay pedal for this part. Tremelo pick. Listen to the 
for the exact rhythm-
these are just the notes.

[ Tab from: http://www.guitaretab.com/m/mogwai/52373.html ]
|---4-----4-----4---3-----3-----3---3-----3-----3---3-----3-----3----0-----0-----0-|
|-----0-----0---------0-----0---------0-----0---------0-----0----------5-----5-----|
|----------------------------------------------------------------------------------|
|----------------------------------------------------------------------------------|
|-4-----4-----4---3-----3-----3---3-----3-----3-------------------/7-----7-----7---|
|-------------------------------------------------3-----3-----3--------------------|


|---0-----0-----0---0-----0-----0---0-----0-----0---0-----0-----0----0-----0-----3-----3-----3---|
|-----4-----4---------3-----3---------3-----3---------3-----3----------5-----5-----5-----5-----5-|
|------------------------------------------------------------------------------------------------|
|------------------------------------------------------------------------------------------------|
|-4-----4-----4---3-----3-----3---3-----3-----3-------------------/7-----7-----7-----7-----7-----|
|-------------------------------------------------3-----3-----3----------------------------------|


|------------------------------------------------------------------|
|-10**-----12****-----10**-----12*****-----10****-----15*----------|
|-------------------------------------------------------------9**--|
|------------------------------------------------------------------|
|------------------------------------------------------------------|
|------------------------------------------------------------------|


|---0-----2-----3-----0-----2------0-----0-----0-----0-----0-------------------------------------0-----0-----0-----0-----0----|
|-----0-----0-----0-----0-----0------3-----3-----0-----3-----0---3-----3-----3--3-----3-----3------3-----3-----0-----3-----0--|
|------------------------------------------------------------------0-----0--------0-----0------------------------------------*|
|----------------------------------------------------------------------------------------------2-----2-----2-----2-----3-----*|
|-2-----2-----2-----2-----2------0-----0-----0-----0-----0-----3-----3-----3--------3-----3-----------------------------------|
|-----------------------------------------------------------------------------------------------------------------------------|


|---------------------------------------------------------|
|-10**-----12****-----10**-----12****-----10****-----15*--|
|---------------------------------------------------------|
|---------------------------------------------------------|
|---------------------------------------------------------|
|---------------------------------------------------------|


|----------------------------------------------------------------|
|-10**-----12****-----10**-----12****-----10****-----15*---------|
|------------------------------------------------------------9**-|
|----------------------------------------------------------------|
|----------------------------------------------------------------|
|----------------------------------------------------------------|


|---0-----2-----3-----0-----2------0-----0-----0-----0-----0-------------------------------------0-----0-----0-----0-----0----|
|-----0-----0-----0-----0-----0------3-----3-----0-----3-----0---3-----3-----3--3-----3-----3------3-----3-----0-----3-----0--|
|------------------------------------------------------------------0-----0--------0-----0------------------------------------*|
|----------------------------------------------------------------------------------------------2-----2-----2-----2-----3-----*|
|-2-----2-----2-----2-----2------0-----0-----0-----0-----0-----3-----3-----3--------3-----3-----------------------------------|
|-----------------------------------------------------------------------------------------------------------------------------|

Enjoy!
Related for Hunted By A Freak tab