Song name
# A B C D E F G H I J K L M N O P Q R S T U V W X Y Z

Mogwai - Killing All The Flies tab

Verse:

guitar 1 left speaker

|-----0------0------------------------0------0--------------2-----|
|--------------------3-------3----------------------3---------3-0-|
|-----------------------------------------------------------------|
|-----------------------------------------------------------------|
|--3----3-2----2---------2-------2-3----3-2-----2---------2-------|
|----------------0-----0--------------------------0-----0---------|

02:14

|-----------------------------------------------------------------------|
|-----------------------------------------------------------------------|
|-----------------------------------------------------------------------| X2
|5-5-5-5-5-5-5-5-7-7-7-7-7-7-7-7-9-9-9-9-9-9-9-9-11-11-11-11-11-11-11-11|
|3-3-3-3-3-3-3-3-5-5-5-5-5-5-5-5-7-7-7-7-7-7-7-7-9--9--9--9--9--9--9--9-|
|-----------------------------------------------------------------------|

The third time you play it add the next note on the chord like this

5 7 9 11
5 7 9 11
3 5 7 9

HEAVY DISTORTION KICKS IN.


|------------------------------------------------------------------|
|------------------------------------------------------------------|
|------------------------------------------------------------------|
|-9-9-9-9-...12-12-12-12-12-12-12-...14-14-14-14...-16-16-16-16-16-|
|------------------------------------------------------------------|
|------------------------------------------------------------------|

|------------------------------------------------------------------|
|------------------------------------------------------------------|
|------------------------------------------------------------------| REPEAT
|16-16-16-16-16...-17-17-17-17...19-19-19-19...-21-21-21-21--------|..
|------------------------------------------------------------------|
|------------------------------------------------------------------|

|-----------------------|
|-----------------------|
|-----------------------|
|-----------------------|
|-----------------------|
|8------7----------0----|


Guitar 2 (right speaker)

|------------------------------------------------------------------------|
|------------------------------------------------------------------------|
|------------------------------------------------------------------------|
|----5-------------------------------------------------------------------|
|-------7--5-------5-----------------------------------------------------|
|-------------8--------5----7--------------------------------------------|
Repeat without last 2 notes

0:45

|------------------------------------------------------------------------|
|------------------------5---5-------------------------------------------|
|----4----4---4--4--7--4---4---4--7-7------------------------------------|
|5-7---7-----------------------------------------------------------------|
|------------------------------------------------------------------------|
|------------------------------------------------------------------------|
repeat with slight variations throuout song

1:45

|-------------------------------------------------|
|------0---0----0-------0---0---0---0---0--0---0--|
|----4h5----4----4-4\7---7--4----4---2---2-/-4----|
|-------------------------------------------------|
|-------------------------------------------------|
|-------------------------------------------------|

|------------------------------------------------------------------------|
|------------------------5---5-------------------------------------------|
|----4----4---4--4--7--4---4---4--7-7------------------------------------|
|5-7---7-----------------------------------------------------------------|
|------------------------------------------------------------------------|
|------------------------------------------------------------------------|
repeat with slight variations throuout song

Noisy Part


|---------------------------------------------------------------------------|
|---------------------------------------------------------------------------|
|---------------------------------------------------------------------------|
|10-10-10-10-10-9-9-9-9-9-9-7-7-7-7-7-7/9-9-9-9-9-9-9--10-10-10-10-10-10----|
|---------------------------------------------------------------------------|
|8--8--8--8--8--7-7-7-7-7-7-5-5-5-5-5-5/7-7-7-7-7-7-7--8--8--8--8--8--8-----|

|--------------------------------------------------------------------------|
|--------------------------------------------------------------------------|
|--------------------------------------------------------------------------|
|9-9-9-9-9-9-9-9-7-7-7-7-7-7-5-5-5-5-5-5-4-4-4-4-4-4-2-2-2-2-2-2-4-4-4-4-4-|
|--------------------------------------------------------------------------|
|7-7-7-7-7-7-7-7-5-5-5-5-5-5-3-3-3-3-3-3-2-2-2-2-2-2-0-0-0-0-0-0-2-2-2-2-2-|

|------------------------------------------------------------------------|
|------------------------------------------------------------------------|
|------------------------------------------------------------------------|
|5-5-5-5-5-7-7-7-7-7-9-9-9-9---------------------------------------------|
|------------------------------------------------------------------------|
|3-3-3-3-3-5-5-5-5-5-7-7-7-7---------------------------------------------|

|------*5--|
|---*5*----|
|*5*-------|
|----------|
|----------|
|----------| pick randomly

Have fun.
Tap to rate this tab
 
# A B C D E F G H I J K L M N O P Q R S T U V W X Y Z