Song name
# A B C D E F G H I J K L M N O P Q R S T U V W X Y Z

Mogwai - Burn Girl Prom Queen tab

Help us improve GuitareTab! Take a short survey!
----------------------------------------------------------------------------
			 BURN GIRL PROM QUEEN - Mogwai
----------------------------------------------------------------------------

Album: EP+2
Tabbed by: Eric Blackburn
Email: blurareshite@yahoo.com

Tuning: Standard (EADGBe)

This is mostly the intro, but it goes on forever.

e|-3---3---3---3---5---5---5---5---0---0---0---0---0---0---0---0-------|
B|---5---5---5---5---5---5---5---5---5---5---5---5---5---5---5---------|
G|---------------------------------------------------------------------|
D|---------------------------------------------------------------------|
A|---------------------------------------------------------------------|
E|---------------------------------------------------------------------|

Hammer-On/Pull-Off Bit:
e|-3---3---3---3---5---5---5---5---0---0---0---0----h--0---0--p--0---0-|
B|---5---5---5---5---5---5---5---5---5---5---5---5-3^5---5---6^5---5---|
G|---------------------------------------------------------------------|
D|---------------------------------------------------------------------|
A|---------------------------------------------------------------------|
E|---------------------------------------------------------------------|


questions, comments blah blah blah...


| /  slide up
| \  slide down
| h  hammer-on
| p  pull-off
| ~  vibrato
| +  harmonic
| x  Mute note
============================================================================
Related for Burn Girl Prom Queen tab