Song name
# A B C D E F G H I J K L M N O P Q R S T U V W X Y Z

Mogwai - Punk Rock tab

Help us improve GuitareTab! Take a short survey!
Great song, even though it's only a couple minutes long.


Guitar 1
e|--------------------------------------|
b|--------------------------------------|
g|-----9-----9------------9---------9---|
d|---7---7-7---7----7-7p0-----7-7p0-----|
a|-0--------------8---------8-----------|
e|--------------------------------------|

Guitar 2
e|----------------7----7----7----7----0-|
b|------------------10---10---10---10---|
g|--------------------------------------|
d|--------------------------------------|
a|--------------------------------------|
e|--------------------------------------|


Guitar 1
e|--------------------------------------|
b|--------------------------------------|
g|-----9-----9------------9---------9---|
d|---7---7-7---7----7-7p0-----7-7p0-----|
a|-0--------------8---------8-----------|
e|--------------------------------------|

Guitar 2
e|-----------------0---0---0---0-----0---|
b|-------------------8---8---8---8-------|
g|---------------------------------------|
d|---------------------------------------|
a|---------------------------------------|
e|---------------------------------------|

Guitar 1
e|-------------------------------------|
b|-----10------8-----------------------|
g|--------9------9------9--------------|
d|---7----------------7---7---10---10--|
a|-0---------0------8-------8----8-----|
e|-------------------------------------|

Guitar 2
e|------------------7----7----7----8----0-|
b|--------------------10---10---10---10---|
g|----------------------------------------|
d|----------------------------------------|
a|----------------------------------------|
e|----------------------------------------|

Guitar 1
e|--------------------------------------|
b|-----10------8--------9---------------|
g|--------9------9----7---7-------------|
d|---7--------------8---------10---10---|
a|-0---------0--------------8----8------|
e|--------------------------------------|

Guitar 2
e|-----------------0---0---0-----0--0----|
b|-------------------8---8---8-6---------|
g|---------------------------------------|
d|---------------------------------------|
a|---------------------------------------|
e|---------------------------------------|

Guitar 1
e|------------------------------------|
b|------------------------------------|
g|-----9-----9---9------9-------------|
d|---7-----7----------7---7---10---10-|
a|-0-----0-----0----8-------8----8----|
e|------------------------------------|

Guitar 2
e|------------------7----7----7----8----0-|
b|--------------------10---10---10---10---|
g|----------------------------------------|
d|----------------------------------------|
a|----------------------------------------|
e|----------------------------------------|

Guitar 1
e|------------------------------------|
b|------------------------------------|
g|-----9-----9---9------9-------------|
d|---7-----7----------7---7---10---10-|
a|-0-----0-----0----8-------8----8----|
e|------------------------------------|

Guitar 2
e|-----------------0---0---0-----0--0----|
b|-------------------8---8---8-6---------|
g|---------------------------------------|
d|---------------------------------------|
a|---------------------------------------|
e|---------------------------------------|

Guitar 1
e|-------------------------------------|
b|-----10------8-----------------------|
g|--------9------9------9--------------|
d|---7----------------7---7---10---10--|
a|-0---------0------8-------8----8-----|
e|-------------------------------------|

Guitar 2
e|------------------7----7----7----8----0-|
b|--------------------10---10---10---10---|
g|----------------------------------------|
d|----------------------------------------|
a|----------------------------------------|
e|----------------------------------------|

Guitar 1
e|-------------------------------------|
b|-----10------8-----------------------|
g|--------9------9------9--------------|
d|---7----------------7---7---10---10--|
a|-0---------0------8-------8----8-----|
e|-------------------------------------|

Guitar 2
e|------------------0---0---0-----0--0--|
b|--------------------8---8---8-6-------|
g|--------------------------------------|
d|--------------------------------------|
a|--------------------------------------|
e|--------------------------------------|

Guitar 1
e|-------------------------------------|
b|-----10------8-----------------------|
g|--------9------9------9--------------|
d|---7----------------7---7---10---10--|
a|-0---------0------8-------8----8-----|
e|-------------------------------------|

Guitar 2
e|------------------7----7----7----8----0-|
b|--------------------10---10---10---10---|
g|----------------------------------------|
d|----------------------------------------|
a|----------------------------------------|
e|----------------------------------------|


It goes on like this until the end.
Related for Punk Rock tab