Song name
# A B C D E F G H I J K L M N O P Q R S T U V W X Y Z

Mogwai - Sad Dc tab

Mogwai
"Sad D.C."
Happy Songs for Happy People (Japanese Import version)

this is a very simple song I thought I'd tab.

^ - slight bend

main riff, clean sound for whole song.
e|-----------------------------------|
B|-----------------------------------|
G|----0---2---4-------4^--0----------|
D|-0----0---0---0---0---0---0--------|
A|----------------3-----------3------|
E|-----------------------------------|
for the end of this riff make it blend into the beginning.

~(1.39) change
e|--------------|---------------------|
B|--------------|---------------------|
G|---12---11---9|-------4---0---------|
D|-0----0----0--|-0---0---0---0-------|
A|--------------|---3-----------3-----| intro repeat.
E|--------------|---------------------|

~(1.56) change
e|---------------|-------------------|
B|---------------|-------------------|
G|---12---14---11|-main riff repeat--|
D|-0----0----0---|-------------------|
A|---------------|-------------------|
E|---------------|-------------------|

at ~(2.14) repeat intro

~(2.22) a second guitar plays this.
e|------------------------------|
B|------------------------------|
G|----11--12-11--7--------------|
D|------------------------------|
A|------------------------------|
E|------------------------------|

end:

** i'm pretty sure this isn't exactly what they play in the song, but it sounds really 
and could fit the sound well.

~(2.37) guitar 2 plays main intro riff,
the other quietly strums this until end with the vocals.
e|---2-------|
B|---3----0--|
G|---0----0--|
D|---0----2--|
A|---0----3--|
E|---3-------|


this is a really great and underrated Mogwai song. the intro is the funniest thing to 
despite it being so simple. Enjoy!
Tap to rate this tab
 
# A B C D E F G H I J K L M N O P Q R S T U V W X Y Z