Guitaretab - guitar tabs
Song name
# A B C D E F G H I J K L M N O P Q R S T U V W X Y Z

Mogwai - Christmas Steps tab

This song is absolutely amazing. If you don't own the "Come On Die Young" album, go get
it NOW!

Mogwai -- "Christmas Steps" Guitar & Bass Tab 

This is a long complicated song. I included Dominics' Bass lines too so you'd get a
better idea of where they'd go. It would be too hard to figure out if I did the bass
tab and guitar tab seperately.

Stuart
||--------------------------------------------||
||--------------------------------------------||
||--------------------------------------------||
||------------6-------------6------2---2------||
||--0h2-/-4------0h2-/-4-----0----0-----------||
||--------------------------------------------||

||--------------------------------------------||
||--------------------------------------------||
||--------------------------------------------||
||------------6-------------6------2---2------||
||--0h2-/-4------0h2-/-4-----0--(0)-----------||
||--------------------------------------------||

||--------------------------------------------||
||--------------------------------------------||
||--------------------------------------------||
||------------6-------------6------2---2------||
||--0h2-/-4------0h2-/-4-----0---0------------||
||--------------------------------------------||

||--------------------------------------------||
||--------------------------------------------||
||--------------------------------------------||
||------------6-------------6-------2---2-----||
||--0h2-/-4------0h2-/-4------0---0-----------||
||--------------------------------------------||

0:37
enter John
Stuart
||--------------------------------------------||
||--------------------------------------------||
||--------------------------------------------||
||------------6-------------6---------2---2---||
||--0h2-/-4------0h2-/-4-------0---0----------||
||--------------------------------------------||
John
||--------------------------------------------||
||--------------------------------------------||
||-------------6)----------------------1------||
||---(0h2-/4--------------4-----2---2---------||
||------------------------------------0---0---||
||--------------------------------------------||

Stuart
||--------------------------------------------||
||--------------------------------------------||
||--------------------------------------------||
||------------6-------------6-------2---2-----||
||--0h2-/-4------0h2-/-4------0---0-----------||
||--------------------------------------------||
John
||-----------------------------------------||
||-----------------------------------------||
||-------------6)-------------6---4--2-----||
||---(0h2-/4------0h2-/-4----4---4---------||
||-----------------------------------------||
||-----------------------------------------||

0'55
Stuart
||---------------------------------------------||
||---------------------------------------------||
||---------------------------------------------||
||------------6----------------6---------2---2-||
||--0h2-/-4----------0h2-/-4-------0---0-------||
||---------------------------------------------||
John
||------------------------------------------||
||------------------------------------------||
||------------------------------------------||
||------------6---2--------------6---4-7p6--||
||--0h2-/-4----0-----0h2-/-4---4------------||
||------------------------------------------||


Stuart
||----------------------------------------------||
||----------------------------------------------||
||----------------------------------------------||
||------------6-------------------6------2---2--||
||--0h2-/-4-----------0h2-/-4------0---0--------||
||----------------------------------------------||
John
||------------------------------------------||
||------------------------------------------||
||------------------------------------------||
||------------6--4--2------------6---4-7p6--||
||--0h2-/-4---4--0----0h2-/-4---4-----------||
||------------------------------------------||

1:12
Stuart
||----------------------------------------------||
||----------------------------------------------||
||----------------------------------------------||
||------------6-------------------6------2---2--||
||--0h2-/-4-----------0h2-/-4------0---0--------||
||----------------------------------------------||
John
||------------------------------------------||
||------------------------------------------||
||------------------------------------------||
||----6---6---6---6---7---7---7---7---------||
||------4---4---4---4---4---4---4---4-------||
||------------------------------------------||


1:30 enter Dominic
Stuart
||----------------------------------------------||
||----------------------------------------------||
||----------------------------------------------||
||------------6-------------------6------2---2--||
||--0h2-/-4-----------0h2-/-4------0---0--------||
||----------------------------------------------||
John
||------------------------------------------||
||------------------------------------------||
||------------------------------------------||
||----6---6---6---6---7---7---7---7---------||
||------4---4---4---4---4---4---4---4-------||
||------------------------------------------||
Dominic
||------------------------------------------||
||----6----4------------4----2--------------||
||-4----4------------4----4-----------------||
||------------------------------------------||


Stuart
||----------------------------------------------||
||----------------------------------------------||
||----------------------------------------------||
||------------6-------------------6------2---2--||
||--0h2-/-4-----------0h2-/-4------0---0--------||
||----------------------------------------------||
John
||-------------------------------------------||
||-------------------------------------------||
||-------------------------------------------||
||----6---6---6---6---7---7---7---7----------||
||------4---4---4---4---4---4---4---4--------||
||-------------------------------------------||
Dominic
||-------------------------------------------||
||----6----4------------4----2---------------||
||-4----4------------4----4------------------||
||-------------------------------------------||


1:47
Stuart	
||-------------------------------------------||
||-------------------------------------------||
||-------------------------------------------||
||--------6----6--6--6----6---6---7--7-------||
||-----------4---4--4--4----4---4---4--4-----||
||-------------------------------------------||
John
||-------------------------------------------||
||-------------------------------------------||
||-------------------------------------------||
||--------6---6---6---6----7---7---7---7-----||
||----------4---4---4---4----4---4---4---4---||
||-------------------------------------------||
Dominic
||-------------------------------------------||
||----6----4------------4----2---------------||
||-4----4------------4----4------------------||
||-------------------------------------------||


Stuart	
||-------------------------------------------||
||-------------------------------------------||
||-------------------------------------------||
||--------6----6--6--6----6---6---7--7-------||
||-----------4---4--4--4----4---4---4--4-----||
||-------------------------------------------||
John
||-------------------------------------------||
||-------------------------------------------||
||-------------------------------------------||
||--------6---6---6---6----7---7---7---7-----||
||----------4---4---4---4----4---4---4---4---||
||-------------------------------------------||
Dominic
||-------------------------------------------||
||----6----4----/--------9----7--------------||
||-4----4------/------7----7-----------------||
||-------------------------------------------||

2:04
Stuart
||-------------------------------------------||
||--9---9---9---9---9---9----10--10----------||
||---9---9---9---9---9---9-----9---9---------||
||-------------------------------------------||
||-------------------------------------------||
||-------------------------------------------||
John
||-------------------------------------------||
||-------------------------------------------||
||-------------------------------------------||
||--------6---6---6---6----6---6---7---7-----||
||----------4---4---4---4----4---4---4---4---||
||-------------------------------------------||
Dominic
||-------------------------------------------||
||----6----4------------4----2---------------||
||-4----4------------4----4------------------||
||-------------------------------------------||


Stuart
||-------------------------------------------||
||--9---9---9---9---9---9----10--10----------||
||---9---9---9---9---9---9-----9---9---------||
||-------------------------------------------||
||-------------------------------------------||
||-------------------------------------------||
John
||-------------------------------------------||
||-------------------------------------------||
||-------------------------------------------||
||--------6---6---6---6----6---6---7---7-----||
||----------4---4---4---4----4---4---4---4---||
||-------------------------------------------||
Dominic
||-------------------------------------------||
||----6----4------------4----2---------------||
||-4----4------------4----4------------------||
||-------------------------------------------||

2:21
Stuart
||--------12-----12-----12(p9)--12-(p9)------12(p9)--||
||---9--------9------9--------9----------9----10-----|| 
||-----9--------9------9--------9----------9-----9---||
||---------------------------------------------------|| 
||---------------------------------------------------||
||---------------------------------------------------|| 
John
||-------------------------------------------||
||-------------------------------------------||
||-------------------------------------------||
||--------6---6---6---6----6---6---7---7-----||
||----------4---4---4---4----4---4---4---4---||
||-------------------------------------------||
Dominic
||-------------------------------------------||
||----6----4----/--------9----7--------------||
||-4----4------/------7----7-----------------||
||-------------------------------------------||

2:31
Stuart
||-------12p9---12p9----12(p9)--12-(p9)-----------------||
||---9----------(9)---------9-------(9)----------12--9--|| 
||----(9)----------9--------(9)--------9------9---------||
||------------------------------------------------------|| 
||------------------------------------------------------||
||------------------------------------------------------|| 
John
||-------------------------------------------||
||-------------------------------------------||
||-------------------------------------------||
||--------6---6---6---6----6---6---7---7-----||
||----------4---4---4---4----4---4---4---4---||
||-------------------------------------------||
Dominic
||-------------------------------------------||
||----6----4------------4----2---------------||
||-4----4------------4----4------------------||
||-------------------------------------------||

2:41
Stuart
||-------------------------------------------||
||--9---9---9---9---9---9----10--10----------||
||---9---9---9---9---9---9-----9---9---------||
||-------------------------------------------||
||-------------------------------------------||
||-------------------------------------------||
John
||-------------------------------------------||
||-------------------------------------------||
||-------------------------------------------||
||--------6---6---6---6----6---6---7---7-----||
||----------4---4---4---4----4---4---4---4---||
||-------------------------------------------||
Dominic
||-------------------------------------------||
||----6----4------------4----2---------------||
||-4----4------------4----4------------------||
||-------------------------------------------||

2:51
Stuart
||-------------------------------------------||
||--9---9---9---9---9---9----10--10----------||
||---9---9---9---9---9---9-----9---9---------||
||-------------------------------------------||
||-------------------------------------------||
||-------------------------------------------||
John
||-------------------------------------------||
||-------------------------------------------||
||-------------------------------------------||
||--------6---6---6---6----6---6---7---7-----||
||----------4---4---4---4----4---4---4---4---||
||-------------------------------------------||
Dominic
||-------------------------------------------||
||----6----4------------4----2---------------||
||-4----4------------4----4------------------||
||-------------------------------------------||


2:57
exit Stuart
John
||-------------------------------------------||
||-------------------------------------------||
||-------------------------------------------||
||----6-6-6-6-6-6-6-6--7-7-7-7-7-7-7-7-------||
||----4-4-4-4-4-4-4-4--4-4-4-4-4-4-4-4-------||
||-------------------------------------------||
Dominic
||-------------------------------------------||
||----6----4------------4----2---------------||
||-4----4------------4----4------------------||
||-------------------------------------------||

John
||-------------------------------------------||
||-------------------------------------------||
||-------------------------------------------||
||----6-6-6-6-6-6-6-6--7-7-7-7-7-7-7-7-------||
||----4-4-4-4-4-4-4-4--4-4-4-4-4-4-4-4-------||
||-------------------------------------------||
Dominic
||-------------------------------------------||
||----6----4----/--------9-------------------||
||-4----4------/------7----7--0--------------||
||-------------------------------------------||


3:14
exit Dominic
enter Stuart
Play this for 4 bars:
Stuart
||-------------------------------------------||
||-------------------------------------------||
||-------------------------------------------||
||---6-6-6-6-6-6-6-6--7-7-7-7-7-7-7-7--------||
||---4-4-4-4-4-4-4-4--4-4-4-4-4-4-4-4--------||
||--4-4-4-4-4-4-4-4--5-5-5-5-5-5-5-5---------||
John
||-------------------------------------------||
||-------------------------------------------||
||-------------------------------------------||
||---6-6-6-6-6-6-6-6--7-7-7-7-7-7-7-7--------||
||---4-4-4-4-4-4-4-4--4-4-4-4-4-4-4-4--------||
||-------------------------------------------||

3:47
This is where Dominic returns with the really heavy bass line
The tempo accelarates throughout the next 8 bars
Next 8 bars:
Stuart
||---------------------0----------------------||(only strummed occasionally)
||--------------------------------------------||
||--------------------------------------------||
||---6-6-6-6-6-6-6-6--7-7-7-7-7-7-7-7---------||
||---4-4-4-4-4-4-4-4--4-4-4-4-4-4-4-4---------||
||--4-4-4-4-4-4-4-4--5-5-5-5-5-5-5-5----------|| 
John
||--------------------------------------------||
||--------------------------------------------||
||--------------------------------------------||
||---6-6-6-6-6-6-6-6--7-7-7-7-7-7-7-7---------||
||---4-4-4-4-4-4-4-4--4-4-4-4-4-4-4-4---------||
||--------------------------------------------||
Dominic 
||-----6--6---6--6----6----6-6--6-6---6-------||
||-----6--6---6--6----6----6-6--6-6---6-------||
||-----4--4---4--4----4----4-4--4-4---4-------||
||--------------------------------------------||

4:35
Bar 9 is:
Stuart
||----------------------------------------0---||
||----------------------------------------0---||
||----------------------------------------0---||
||---6-6-6-6-6-6-6-6--7-7-7-7-7--7------------||
||---4-4-4-4-4-4-4-4--4-4-4-4-4--4------------||
||--4-4-4-4-4-4-4-4--5-5-5-5-5----------------|| 
John
||------------------------------------------0-||
||------------------------------------------0-||
||------------------------------------------0-||
||---6-6-6-6-6-6-6-6--7-7-7-7-7--7------------||
||---4-4-4-4-4-4-4-4--4-4-4-4-4--4------------||
||--------------------------------------------||
Dominic 
||-----6--6---6--6----6----6-6--6-6---6-------||
||-----6--6---6--6----6----6-6--6-6---6-------||
||-----4--4---4--4----4----4-4--4-4---4-------||
||--------------------------------------------||

4:40
(This is where Martin would come in with the drums)
Stuart				
||-------0-0--0-0-0---0--0--x-x-0-0--0--------0-0--0-0-0---0--0--x-x-0-0--0----||
||-------5-5--4-4-0---5--5--x-x-4-4--0--------5-5--4-4-0---5--5--x-x-4-4--0----||
||-------6-6--6-6-6---6--6--x-x-6-6--6--------6-6--6-6-6---6--6--x-x-6-6--6----||
||-------6-6--6-6-6---6--6--x-x-6-6--6--------6-6--6-6-6---6--6--x-x-6-6--6----||
||-------4-4------------4--4-----------------------4-4------------4--4---------||
||-----------------------------------------------------------------------------||
John plays same thing as Stuart or just not at all. 
Dominic
||-------6---6------6------6---6-----6-----------6---6------6----6---6------6--||
||-------6---6------6------6---6-----6-----------6---6------6----6---6------6--||
||-------4---4------4------4---4-----4-----------4---4------4----4---4------4--||
||-----------------------------------------------------------------------------||

Stuart
||--------0-0---0-0---0---------0-x----0-x---0---------------------------------||
||--------0-0---0-0---0---------0-x----0-x---0---------------------------------||
||--------6-6---6-6---6---------6-x----6-x---6---------------------------------||
||--------7-7---7-7---7---------7-xNH7-x---7-----------------------------------||
||--------7-7---7-7---7---------7-x----7-x---7---------------------------------||
||--------5-5---5-5---5---------5-------5-----5--------------------------------||
John
||--------0-0---0-0---0---------0-0----0-0---0---------------------------------||
||--------0-0---0-0---0---------0-0----0-0---0---------------------------------||
||--------6-6---6-6---6---------6-6----6-6---6---------------------------------||
||--------7-7---7-7---7---------7-7----7-7---7---------------------------------||
||--------7-7---7-7---7---------7-7----7-7---7---------------------------------||
||--------5-5---5-5---5---------5-5----5-5---5---------------------------------||
Dominic
||---------2-2--2-2---2----------2-2----2-2--2---------------------------------||
||---------2-2--2-2---2----------2-2----2-2--2---------------------------------||
||---------0-0--0-0---0----------0-0----0-0--0---------------------------------||
||-----------------------------------------------------------------------------||


Stuart			
||-------0-0--0-0-0---0--0--x-x-0-0--0--------0-0--0-0-0---0--0--x-x-0-0--0----||
||-------5-5--4-4-0---5--5--x-x-4-4--0--------5-5--4-4-0---5--5--x-x-4-4--0----||
||-------6-6--6-6-6---6--6--x-x-6-6--6--------6-6--6-6-6---6--6--x-x-6-6--6----||
||-------6-6--6-6-6---6--6--x-x-6-6--6--------6-6--6-6-6---6--6--x-x-6-6--6----||
||-------4-4------------4--4-----------------------4-4------------4--4---------||
||-----------------------------------------------------------------------------||
John same again
Dominic
||-------6---6------6------6---6-----6-----------6---6------6----6---6------6--||
||-------6---6------6------6---6-----6-----------6---6------6----6---6------6--||
||-------4---4------4------4---4-----4-----------4---4------4----4---4------4--||
||-----------------------------------------------------------------------------||

Stuart
||--------0-0---0-0---0---------0-x----0-x---0---------------------------------||
||--------0-0---0-0---0---------0-x----0-x---0---------------------------------||
||--------6-6---6-6---6---------6-x----6-x---6---------------------------------||
||--------7-7---7-7---7---------7-xNH7-x---7-----------------------------------||
||--------7-7---7-7---7---------7-x----7-x---7---------------------------------||
||--------5-5---5-5---5---------5-------5-----5--------------------------------||
John
||--------0-0---0-0---0---------0-0----0-0---0---------------------------------||
||--------0-0---0-0---0---------0-0----0-0---0---------------------------------||
||--------6-6---6-6---6---------6-6----6-6---6---------------------------------||
||--------7-7---7-7---7---------7-7----7-7---7---------------------------------||
||--------7-7---7-7---7---------7-7----7-7---7---------------------------------||
||--------5-5---5-5---5---------5-5----5-5---5---------------------------------||
Dominic
||---------2-2--2-2---2----------2-2----2-2--2---------------------------------||
||---------2-2--2-2---2----------2-2----2-2--2---------------------------------||
||---------0-0--0-0---0----------0-0----0-0--0---------------------------------||
||-----------------------------------------------------------------------------||


Stuart				
||-------0-0--0-0-0---0--0--x-x-0-0--0--------0-0--0-0-0---0--0--x-x-0-0--0----||
||-------5-5--4-4-0---5--5--x-x-4-4--0--------5-5--4-4-0---5--5--x-x-4-4--0----||
||-------6-6--6-6-6---6--6--x-x-6-6--6--------6-6--6-6-6---6--6--x-x-6-6--6----||
||-------6-6--6-6-6---6--6--x-x-6-6--6--------6-6--6-6-6---6--6--x-x-6-6--6----||
||-------4-4------------4--4-----------------------4-4------------4--4---------||
||-----------------------------------------------------------------------------||
John same again
Dominic
||-------6---6------6------6---6-----6-----------6---6------6----6---6------6--||
||-------6---6------6------6---6-----6-----------6---6------6----6---6------6--||
||-------4---4------4------4---4-----4-----------4---4------4----4---4------4--||
||-----------------------------------------------------------------------------||

5:14
Distortion On
Stuart
||-----------------------------------------------------------------------------||
||------5-5---5-5---5--(5)--5-5---5---------5-5---5-5---5--(5)--5-5---5--------||
||------6-6---6-6---6---6---6-6---6---------6-6---6-6---6---6---6-6---6--------||
||------6-6---6-6---6---6---6-6---6---------6-6---6-6---6---6---6-6---6--------||
||------7-7---4-4---4---7---4-4---4---------7-7---4-4---4---7---4-4---4--------||
||-----------------------------------------------------------------------------||
John
||---------------------------------------------------------------------------------------------------||
||-----------9----------------------------9-----------------------------9-----------------------9----||
||--9--9----9-----9--9-----9---9------9-----9---9----9---9----9----9---9----9---9-----9----9---9-----||
||-11-11--11---11-11---11-11---11---11-11---11-11--11---11-11---11-11---11---11-11-------------------||
||-11-11--11---11-11---11-11---11---11-11---11-11--11---11-11-11---11---11---11-11-------------------||
||--9--9----9-----9--9-----9---9------9-----9---9----9---9----9----9---9-----9---9----9----9---9-----||
Dominic
||-------6---6------6------6---6-----6-----------6---6------6----6---6------6--||
||-------6---6------6------6---6-----6-----------6---6------6----6---6------6--||
||-------4---4------4------4---4-----4-----------4---4------4----4---4------6--||
||-----------------------------------------------------------------------------||


Stuart
||-----------------------------------------------------------------------------||
||-----------------------------------------------------------------------------||
||-------6-6--6-6-6----------6-6--6-6-6----------------------------------------||
||-------7-7--7-7-7----------7-7--7-7-7----------------------------------------||
||-------7-7--7-7-7----------7-7--7-7-7----------------------------------------||
||----------5--5-5-5------------5--5-5-5---------------------------------------||
John
||----------------------------------------------------------------------------------------------------||
||-----------9----------------------------9-----------------------------9--------------------------9--||
||--9--9----9-----9--9-----9---9------9-----9---9----9---9----9----9---9----9---9-----9----9---9------||
||-11-11--11---11-11---11-11---11---11-11---11-11--11---11-11---11-11---11---11-11--------------------||
||-11-11--11---11-11---11-11---11---11-11---11-11--11---11-11-11---11---11---11-11--------------------||
||--9--9----9-----9--9-----9---9------9-----9---9----9---9----9----9---9-----9---9----9----9---9------||

Dominic
||---------2-2--2-2---2----------2-2----2-2--2---------------------------------||
||---------2-2--2-2---2----------2-2----2-2--2---------------------------------||
||---------0-0--0-0---0----------0-0----0-0--0---------------------------------||
||-----------------------------------------------------------------------------||

Stuart
||-----------------------------------------------------------------------------||
||------5-5---5-5---5--(5)--5-5---5---------5-5---5-5---5--(5)--5-5---5--------||
||------6-6---6-6---6---6---6-6---6---------6-6---6-6---6---6---6-6---6--------||
||------6-6---6-6---6---6---6-6---6---------6-6---6-6---6---6---6-6---6--------||
||------7-7---4-4---4---7---4-4---4---------7-7---4-4---4---7---4-4---4--------||
||-----------------------------------------------------------------------------||
John
||----------------------------------------------------------------------------------------------------||
||-----------9----------------------------9-----------------------------9--------------------------9--||
||--9--9----9-----9--9-----9---9------9-----9---9----9---9----9----9---9----9---9-----9----9---9------||
||-11-11--11---11-11---11-11---11---11-11---11-11--11---11-11---11-11---11---11-11--------------------||
||-11-11--11---11-11---11-11---11---11-11---11-11--11---11-11-11---11---11---11-11--------------------||
||--9--9----9-----9--9-----9---9------9-----9---9----9---9----9----9---9-----9---9----9----9---9------||
Dominic
||-------6---6------6------6---6-----6-----------6---6------6----6---6------6--||
||-------6---6------6------6---6-----6-----------6---6------6----6---6------6--||
||-------4---4------4------4---4-----4-----------4---4------4----4---4------4--||
||-----------------------------------------------------------------------------||


Stuart
||-----------------------------------------------------------------------------||
||-----------------------------------------------------------------------------||
||-------6-6--6-6-6----------6-6--6-6-6----------------------------------------||
||-------7-7--7-7-7----------7-7--7-7-7----------------------------------------||
||-------7-7--7-7-7----------7-7--7-7-7----------------------------------------||
||----------5--5-5-5------------5--5-5-5---------------------------------------||
John
||-----------------------------------------------------------------------------||
||--------------------------9---------------------------9----------------------||
||-------9---9----9---9---9--------9---9----9--9---9---------------------------||
||------11-11---11-11-11------11--11--11-11-11---------------------------------||
||-------0---0----0---0---0-------0---0----0---0---0---------------------------||
||-----------------------------------------------------------------------------||
Dominic
||---------2-2--2-2---2----------2-2----2-2--2---------------------------------||
||---------2-2--2-2---2----------2-2----2-2--2---------------------------------||
||---------0-0--0-0---0----------0-0----0-0--0---------------------------------||
||-----------------------------------------------------------------------------||


[ Tab from: http://www.guitaretab.com/m/mogwai/69999.html ]
Stuart
||-----------------------------------------------------------------------------||
||------5-5---5-5---5--(5)--5-5---5---------5-5---5-5---5--(5)--5-5---5--------||
||------6-6---6-6---6---6---6-6---6---------6-6---6-6---6---6---6-6---6--------||
||------6-6---6-6---6---6---6-6---6---------6-6---6-6---6---6---6-6---6--------||
||------7-7---4-4---4---7---4-4---4---------7-7---4-4---4---7---4-4---4--------||
||-----------------------------------------------------------------------------||
John
||---------------------------------------------------------------------------------------------------||
||-----------9----------------------------9-------------------------9--------------------------9-----||
||--9--9----9-----9--9-----9---9----9-----9---9----9---9----9----9---9----9---9-----9----9---9-------||
||-11-11--11---11-11---11-11---11---11-11---11-11--11---11-11---11-11---11---11-11-------------------||
||-11-11--11---11-11-11-11---11---11-11---11-11--11---11-11-11-11---11---11-11-----------------------||
||--9--9----9-----9--9-----9---9----9-----9---9----9---9----9----9---9-----9---9----9----9---9-------||
Dominic
||-------6---6------6------6---6-----6-----------6---6------6----6---6------6--||
||-------6---6------6------6---6-----6-----------6---6------6----6---6------6--||
||-------4---4------4------4---4-----4-----------4---4------4----4---4------4--||
||-----------------------------------------------------------------------------||


5:44
Play this for the next 6 bars
Stuart
||-------------------------------------------------------||
||---/-17------17--17-16-\-12-9---9---9--9---------------||
||-------------------------------------9---9--9---9------||
||-------------------------------------------------------||
||-------------------------------------------------------||
||-------------------------------------------------------||
John(still distorted)
||------------------------------------------------------------------------------||
||------5-5---5-5---5--(5)--5-5---5---------5-5---5-5---5--(5)--5-5---5---------||
||------6-6---6-6---6---6---6-6---6---------6-6---6-6---6---6---6-6---6---------||
||------6-6---6-6---6---6---6-6---6---------6-6---6-6---6---6---6-6---6---------||
||------7-7---4-4---4---7---4-4---4---------7-7---4-4---4---7---4-4---4---------||
||------------------------------------------------------------------------------||
Dominic
||----------------------------------------------------------||
||-----------------------------------------(2)--------------||
||-------(7)-------------------------------0----------------||
||-------0--------------------------------------------------||

6:10
Stuart and John
||----4-4--4-4--4----4-4--4-4--4---4-4--4-4--4----4-4--4-4---4-------------------||
||----5-5--5-5--5----5-5--5-5--5---5-5--5-5--5----5-5--5-5---5-------------------||
||----6-6--6-6--6----6-6--6-6--6---6-6--6-6--6----6-6--6-6---6-------------------||
||----6-6--6-6--6----6-6--6-6--6---6-6--6-6--6----6-6--6-6---6-------------------||
||----4-4--4-4--4----4-4--4-4--4---4-4--4-4--4----4-4--4-4---4-------------------||
||-------------------------------------------------------------------------------||
Dominic
||-------6---6------6------6---6-----6-----------6---6------6----6---6------6----||
||-------6---6------6------6---6-----6-----------6---6------6----6---6------6----||
||-------4---4------4------4---4-----4-----------4---4------4----4---4------4----||
||-------------------------------------------------------------------------------||

6:18
Turn off distortion
Play Riff
Stuart				
||-------0-0--0-0-0---0--0--x-x-0-0--0--------0-0--0-0-0---0--0--x-x-0-0--0----||
||-------5-5--4-4-0---5--5--x-x-4-4--0--------5-5--4-4-0---5--5--x-x-4-4--0----||
||-------6-6--6-6-6---6--6--x-x-6-6--6--------6-6--6-6-6---6--6--x-x-6-6--6----||
||-------6-6--6-6-6---6--6--x-x-6-6--6--------6-6--6-6-6---6--6--x-x-6-6--6----||
||-------4-4------------4--4-----------------------4-4------------4--4---------||
||-----------------------------------------------------------------------------||
John same again
Dominic
||-------6---6------6------6---6-----6-----------6---6------6----6---6------6--||
||-------6---6------6------6---6-----6-----------6---6------6----6---6------6--||
||-------4---4------4------4---4-----4-----------4---4------4----4---4------4--||
||-----------------------------------------------------------------------------||


Stuart
||--------0-0---0-0---0---------0-x----0-x---0---------------------------------||
||--------0-0---0-0---0---------0-x----0-x---0---------------------------------||
||--------6-6---6-6---6---------6-x----6-x---6---------------------------------||
||--------7-7---7-7---7---------7-xNH7-x---7-----------------------------------||
||--------7-7---7-7---7---------7-x----7-x---7---------------------------------||
||--------5-5---5-5---5---------5-------5-----5--------------------------------||
John
||--------0-0---0-0---0---------0-0----0-0---0---------------------------------||
||--------0-0---0-0---0---------0-0----0-0---0---------------------------------||
||--------6-6---6-6---6---------6-6----6-6---6---------------------------------||
||--------7-7---7-7---7---------7-7----7-7---7---------------------------------||
||--------7-7---7-7---7---------7-7----7-7---7---------------------------------||
||--------5-5---5-5---5---------5-5----5-5---5---------------------------------||
Dominic
||---------2-2--2-2---2----------2-2----2-2--2---------------------------------||
||---------2-2--2-2---2----------2-2----2-2--2---------------------------------||
||---------0-0--0-0---0----------0-0----0-0--0---------------------------------||
||-----------------------------------------------------------------------------||

Stuart			
||-------0-0--0-0-0---0--0--x-x-0-0--0------------||
||-------5-5--4-4-0---5--5--x-x-4-4--0------------||
||-------6-6--6-6-6---6--6--x-x-6-6--6------------||
||-------6-6--6-6-6---6--6--x-x-6-6--6------------||
||-------4-4------------4--4----------------------||
||------------------------------------------------||
John same again
Dominic
||-------6---6------6------6---6-----6------------||
||-------6---6------6------6---6-----6------------||
||-------4---4------4------4---4-----4------------||
||------------------------------------------------||

Outro
6:35
Stuart
||------------------------------------------------||
||------------0---------------5-------------------||
||---------6----6-6-\------6----------------------||
||------7------------\-----6----6---6-------------||
||--0---------------------4---4---4---------------||
||------------------------------------------------||
John				
||------------------------------------------------||
||-----2-0-----2-----------2---2---2--------------||
||---2--------2-----------1---1---1---------------||
||------------------------------------------------||
||-0----------------------------------------------||
||------------------------------------------------||
Dominic
||------------------------------------------------------||
||------------------------------------------------------||
||-0------------------4---------------0--------------4--||
||------------------------------------------------------||

6:45
Stuart
||-------------------------------------------------------------||
||-------------------------------------------------------------||
||-------------------------------------------------------------||
||-----11-9-11-11-\-6---6---6--------1-1-2-/--6----6---6-------||
||--0------------------4--4---4--4---0---------/-4---4---4--4--||
||-------------------------------------------------------------||
John
||-------------------------------------------------------------||
||----------5--5--5-\----2--2--2---------5--5--5-\----2--2--2--||
||--------6--6--6---\--1--1--1---------6--6--6--\---1--1--1----||
||----(7)--------------(2)--------------(7)-----------(2)------||
||--0-----------------------------------0----------------------||
||-------------------------------------------------------------||
Dominic
||-------------------------------------------------------------||
||-------------------------------------------------------------||
||--0-------------------4---------------0-----------4----------||
||-------------------------------------------------------------||

6:55
Stuart
||---------------------------------------------------------------||
||---------------------------------------------------------------||
||---------------------------------------------------------------||
||-13-13-/-14-14-\-----6--6--6------4-4-6--9-\---6--6---6--------||
||-0--------------------\-4--4-4--4---0------------\-4--4--4---4-||
||---------------------------------------------------------------||
John
||------------------------------------------------------------||
||----------5~-5~-5-\----2--2--2---------5--5--5-\----2--2-2--||
||--------6--6--6---\--1--1--1---------6--6--6--\---1--1--1---||
||----(7)--------------(2)--------------(7)-----------(2)-----||
||--0-----------------------------------0---------------------||
||------------------------------------------------------------||
Dominic
||------------------------------------------------------------||
||------------------------------------------------------------||
||---0-------------------4--------------0--------------4------||
||------------------------------------------------------------||


7:05
Stuart
||---------------------------------------------------------------||
||---------------------------------------------------------------||
||---------------------------------------------------------------||
||-13-13-/-14-14-\-----6--6--6------4-4-6-6-\----6--6--6---------||
||-0--------------------\-4--4--4--4--0------------\-4--4--4--4--||
||---------------------------------------------------------------||
John
||---------------------------------------------------------------||
||----------5~-5~-5-\----2--2--2---------5--5--5-\----2--2-2-----||
||--------6--6--6---\--1--1--1---------6--6--6--\---1--1--1------||
||----(7)--------------(2)--------------(7)-----------(2)--------||
||--0-----------------------------------0------------------------||
||---------------------------------------------------------------||
Dominic
||---------------------------------------------------------------||
||---------------------------------------------------------------||
||---0-------------------4--------------0--------------4---------||
||---------------------------------------------------------------||

Martin stops

7:14
Stuart
||---------------------------------------------------------------||
||---------------------------------------------------------------||
||---------------------------------------------------------------||
||----11--9---7--6-----6---6---6---------11--9--7--6----6-6--6---||
||--0------0---0--0---4---4---4---4----0-----0--0--0---4--4-4--4-||
||---------------------------------------------------------------||
John
||---------------------------------------------------0-0---------||
||----------5--5--5-\----2--2--2---------5--5--5-\----2--2--2----||
||--------6--6--6---\--1--1--1---------6--6--6--\---1--1--1------||
||----(7)--------------(2)--------------(7)-----------(2)--------||
||--0-----------------------------------0------------------------||
||---------------------------------------------------------------||
Dominic
||---------------------------------------------------------------||
||-----11-9-11--11---------------------11-9--11--11--------------||
||--0-------------------4---------------0-----------------4------||
||---------------------------------------------------------------||

7:24
Stuart
||---------------------------------------------------------------||
||---------------------------------------------------------------||
||---------------------------------------------------------------||
||-----11-9-11-11-\-6---6---6------4-4-6-9-/---6----6---6--------||
||--0------------------4--4---4--4---0-----------/-4---4---4--4--||
||---------------------------------------------------------------||
John
||-------------------------------------------------------------4--4--4-||
||----------5~-5~-5-\----2--2--2---------5--5--5-\----2--2-2-----------||
||--------6--6--6---\--1--1--1---------6--6--6--\---1--1--1------------||
||----(7)--------------(2)--------------(7)-----------(2)--------------||
||--0-----------------------------------0------------------------------||
||---------------------------------------------------------------------||
Dominic
||-------------------------------------------------------------||
||-----11-9-11--11---------------------11-9--11--11------------||
||--0------------------4---------------0-----------------4-----||
||-------------------------------------------------------------||

7:34
Stuart
||---------------------------------------------------------------||
||---------------------------------------------------------------||
||---------------------------------------------------------------||
||----13-13-14-9--6--6--6---6-----7--7--9-9-\----6--6--6---------||
||--0-------------------4--4---4--4-----------------\-4--4--4--4-||
||---------------------------------------------------------------||
John
||----5--5---5---5------4---4---4--4---5---5---5---5----4---4--4---4-||
||--5--5---5---5------2---2---2--2---5---5---5---5----2--2--2---2----||
||-------------------------------------------------------------------||
||-------------------------------------------------------------------||
||-------------------------------------------------------------------||
||-------------------------------------------------------------------||
Dominic
||--------------------------------------------------------||
||----14-13-14-14-----6-------------14-13-14-14-----6-----||
||-0----------------------------------0-------------------||
||--------------------------------------------------------||

7:44
Stuart
||---------------------------------------------------------------||
||---------------------------------------------------------------||
||---------------------------------------------------------------||
||-----11-9-11-11-\--6---6---6------4-4-6-6-/--6----6---6--------||
||--0------------------4--4---4---4--0-----------/-4---4----4--4-||
||---------------------------------------------------------------||
John
||----5--5---5---5------4---4---4--4---5---5---5---5----4---4--4---4-||
||--5--5---5---5------2---2---2--2---5---5---5---5----2--2--2---2----||
||-------------------------------------------------------------------||
||-------------------------------------------------------------------||
||-------------------------------------------------------------------||
||-------------------------------------------------------------------||
Dominic
||-----------------------------------------------------------||
||-----11-9-11--11---------------------11-9--11--11----------||
||--0------------------4---------------0-----------------4---||
||-----------------------------------------------------------||


7:54
Stuart
||-------------------------------------------------------------||
||-------------------------------------------------------------||
||-------------------------------------------------------------||
||-----11-11-9-9---\--6---6--6------4-4-6-9-/---6--6---6-------||
||--0------------------4--4---4--4---0-----------/-4--4--4---4-||
||--------------------------------------------------------------||
John
||----5-------5--------4------4------4------4-------5-----5-----||
||--2-------2--------2------2------2------2-------2-----2-------||
||--------------------------------------------------------------||
||--------------------------------------------------------------||
||--------------------------------------------------------------||
||--------------------------------------------------------------||
Dominic
||--------------------------------------------------------------||
||--------------------------------------------------------------||
||---0-------------------4--------------0--------------4--------||
||--------------------------------------------------------------||


8:05
Stuart
||------------------------------------------------------------||
||------------------------------------------------------------||
||------------------------------------------------------------||
||----13-13-14-9--6--6--6---6-----1-1--2-\-----6--6---6-------||
||--0-------------------4---4--4--4--------------\-4--4---4-4-||
||------------------------------------------------------------||
John
||----4-------4--------5---5---5------4------4-------5---5--5--||
||--2-------2--------2---2---2------2------2-------2---2--2----||
||-------------------------------------------------------------||
||-------------------------------------------------------------||
||-------------------------------------------------------------||
||-------------------------------------------------------------||
Dominic
||-------------------------------------------------------------||
||-------------------------------------------------------------||
||---0-------------------4--------------0--------------4-------||
||-------------------------------------------------------------||


8:15
Stuart
||-------------------------------------------------------------||
||-------------------------------------------------------------||
||-------------------------------------------------------------||
||-13-13-/-14-14-\-----6-6-6------4-4-6-9-\---6-6-6------------||
||-0--------------------\-4-4-4-4--0------------\-4-4-4--4-----||
||-------------------------------------------------------------||
John
||----4-------4--------5---5---5------4------4-------5---5--5--||
||--2-------2--------2---2---2------2------2-------2---2--2----||
||-------------------------------------------------------------||
||-------------------------------------------------------------||
||-------------------------------------------------------------||
||-------------------------------------------------------------||
Dominic
||-------------------------------------------------------------||
||-------------------------------------------------------------||
||---0-------------------4--------------0--------------4-------||
||-------------------------------------------------------------||

8:25
Stuart
||-------------------------------------------------------------||
||-------------------------------------------------------------||
||-------------------------------------------------------------||
||-13-13-/-14-14-\-----6-6-6------4-4-6-2-/---6-6--6-----------||
||-0--------------------\-4-4-4--4--0------------/-4-4-4--4----||
||-------------------------------------------------------------||
John
||----4-------4--------5---5---5------4------4-------5---5--5--||
||--2-------2--------2---2---2------2------2-------2---2--2----||
||-------------------------------------------------------------||
||-------------------------------------------------------------||
||-------------------------------------------------------------||
||-------------------------------------------------------------||
Dominic
||-------------------------------------------------------------||
||-------------------------------------------------------------||
||---0-------------------4--------------0--------------4-------||
||-------------------------------------------------------------||

8:40
Dominic exits
Stuart
||---------------------------------------------------------------||
||---------------------------------------------------------------||
||---------------------------------------------------------------||
||----7-7-9-9-\----6---6--6---------7--11-11-9-\----6--6-6-------||
||--0------------\-4---4--4---4----0-----------------\-4--4-4--4-||
||---------------------------------------------------------------||
John
||----4-------4--------5---5---5------2------2-------4---4--4----||
||--2-------2--------2---2---2------2------2-------2---2--2------||
||---------------------------------------------------------------||
||---------------------------------------------------------------||
||---------------------------------------------------------------||
||---------------------------------------------------------------||

8:50
Stuart
||---------------------------------------------------------------------||
||---------------------------------------------------------------------||
||---------------------------------------------------------------------||
||---7--6--4--2-/----6---6---6--------7-7-/-13-13-9-\----6--6--6-------||
||-0--------------/--4---4---4---4---0--------------------\-4--4--4--4-||
||---------------------------------------------------------------------||
John
||----5-------5--------4---4---4------5------5-------4---4--4--||
||--2-------2--------2---2---2------2------2-------2---2--2----||
||-------------------------------------------------------------||
||-------------------------------------------------------------||
||-------------------------------------------------------------||
||-------------------------------------------------------------||

9:00
Stuart (Also, a 3rd guitar comes in here. I'm guessing it's Dominic, but not on bass)
||-------------------------------------------------------------||
||-------------------------------------------------------------||
||-------------------------------------------------------------||
||-----11-9-7-6---6---6---6----------11-9-7-6---6---6--6-------||
||--0--------------4---4---4---4------0------------4--4--4---4-||
||-------------------------------------------------------------||
John
||----5-------5--------4---4---4------5------5-------4---4--4--||
||--2-------2--------2---2---2------2------2-------2---2--2----||
||-------------------------------------------------------------||
||-------------------------------------------------------------||
||-------------------------------------------------------------||
||-------------------------------------------------------------||
Dominic
||---------------------------------------------------------------||
||---------------------------------------------------------------||
||---------------------------------------------------------------||
||------------------------------------------7-6-4-2-/---6---6--6-||
||----------------------------------------0-----------/-4---4--4-||
||---------------------------------------------------------------||

9:10
Stuart
||-------------------------------------------------------------||
||-------------------------------------------------------------||
||-------------------------------------------------------------||
||----7-7-9-9-\----6---6---6-------7-6-7-2-/---6---6---6-------||
||--0------------\-4---4---4---4--0-----------/-4---4---4---4--||
||-------------------------------------------------------------||
John
||----5-------5--------4---4---4------5------5-------4---4--4--||
||--2-------2--------2---2---2------2------2-------2---2--2----||
||-------------------------------------------------------------||
||-------------------------------------------------------------||
||-------------------------------------------------------------||
||-------------------------------------------------------------||
Dominic
||-------5----5-----4---4-----4------------5------5-------4----4-----4----||
||-------7----7--7---7-----7-----7---------7-----7----7-----7-----7----7--||
||----6----6-----6---6-----6-----6-------6----6-------6-----6-----6----6--||
||------------------------------------------------------------------------||
||------------------------------------------------------------------------||
||------------------------------------------------------------------------||


9:23
Exit 3rd Guitar
Stuart
||--------------------------------------------------------------||
||--------------------------------------------------------------||
||--------------------------------------------------------------||
||-----7-6--7-6----6----6----6-------6-9-7--2----6---6---6------||
||--0--------------4---4----4---4---0------------4----4---4---4-||
||--------------------------------------------------------------||
John
||----2-------2---4--4--4---------5---5---5---4--4----||
||--2-------2---2--2--2--2-----2---2----2--2---2--2---||
||----------------------------------------------------||
||----------------------------------------------------||
||----------------------------------------------------||
||----------------------------------------------------||

9:33
Stuart
||-----------------------------------------------------------------||
||-----------------------------------------------------------------||
||-----------------------------------------------------------------||
||-----9-9-7-7---6---6--6-------------11-9--7--7-6---6--6--6-------||
||--0------------4---4--4---4-------0-------------------4--4--4--4-||
||-----------------------------------------------------------------||
John
||----5-------5--------4---4---4------5------5-------4---4--4------||
||--2-------2--------2---2---2------2------2-------2---2--2--------||
||-----------------------------------------------------------------||
||-----------------------------------------------------------------||
||-----------------------------------------------------------------||
||-----------------------------------------------------------------||

9:46
Stuart
||----------------------------------------------------------||
||----------------------------------------------------------||
||--------------------------------------------4-------------||
||----4-4-6-2-----2--2--2-----------4-4---2---2---2--2------||
||-0--------------4--4--4--4-------0-----------4---4--4--4--||
||----------------------------------------------------------||
John
||----5-------5--------4---4---4------5------5-------4---4--4--||
||--2-------2--------2---2---2------2------2-------2---2--2----||
||-------------------------------------------------------------||
||-------------------------------------------------------------||
||-------------------------------------------------------------||
||-------------------------------------------------------------||

9:57
Stuart
||--------------------------------------------------------------||
||--------------------------------------------------------------||
||--------------------------------------------------------------||
||-----11--9---7--2---2--2--2-----------4-4-6-2---2---2--2------||
||---0----0---0--0---4--4--4---4------0-----------4---4--4---4--||
||--------------------------------------------------------------||
John
||----4-------4--------4---4---4------5------5-------4---4--4--||
||--2-------2--------2---2---2------2------2-------2---2--2----||
||-------------------------------------------------------------||
||-------------------------------------------------------------||
||-------------------------------------------------------------||
||-------------------------------------------------------------||

10:08
Stuart
||-----------------------------------------------------------------||
||-----------------------------------------------------------------||
||-----------------------------------------------------------------||
||-----7-7-9-9-\----6--6--6------------7--7-9-9-\-----6--6--6------||
||--0-------------\-4--4--4--4--------0-------------\--4--4--4--4--||
||-----------------------------------------------------------------||
John
||----4------4-------4--4--4-----------4------4--------4--4--4-----||
||--2--2--2--2---2---2--2--2-------2--2--2---2---2---2--2--2-------||
||-----------------------------------------------------------------||
||-----------------------------------------------------------------||
||-----------------------------------------------------------------||
||-----------------------------------------------------------------||

10:20
Stuart
||-------------------------------------------------------||
||-------------------------------------------------------||
||-------------------------------------------------------||
||-----7-7-9-9-\----6--6--6------------1--1-2-----6------||
||--0-------------\-4--4--4--4--------0--------------4---||
||-------------------------------------------------------||
John
||----5------5-------4--4--4-----------5------5-----4----||
||--2--2--2--2---2---2--2--2-------2-----2--------2------||
||-------------------------------------------------------||
||-------------------------------------------------------||
||-------------------------------------------------------||
||-------------------------------------------------------||



Give this tab a 5-star rating not just for accuracy, but for awesomeness! thetabworld.com

Related for Christmas Steps tab
×
Best way to learn
"Christmas Steps"