Song name
# A B C D E F G H I J K L M N O P Q R S T U V W X Y Z

Mogwai - Auto-rock tab

-------------------------------------------------------------------------------
			     Auto-Rock - Mogwai
-------------------------------------------------------------------------------
Tabbed by: Wade Abbott
Email: wadeab@hotmail.com

Tuning: Standard 

The song just goes through a number of different patterns...

Part 1 (switches between the two)
e|-11-9-------------------11-9---9-------------------------------------------|
B|------9-7-11------9----------9---11----9-----------------------------------|
G|-------------8-11---6----------------8---11-6------------------------------|
D|---------------------------------------------------------------------------|
A|---------------------------------------------------------------------------|
E|---------------------------------------------------------------------------|

Part 2 (Pretty much plays throughout the song with slight variations.)
e|-11-9-------------------------11-9---9-------------------------------------|
B|------9-7-11------9------9-11-------9---11----9---------9-11---------------|
G|-------------8-11---6-11--------------------8---11-6-11--------------------|
D|---------------------------------------------------------------------------|
A|---------------------------------------------------------------------------|
E|---------------------------------------------------------------------------|

Part 3
e|----------------(9)--------------------------------------------------------|
B|------9-11-9---------------------------------------------------------------|
G|-8-11--------11------------------------------------------------------------|
D|---------------------------------------------------------------------------|
A|---------------------------------------------------------------------------|
E|---------------------------------------------------------------------------|

Outro
e|-----------------------11-9------------------------------------------------|
B|----------------------------9-7-11-----------------------------------------|
G|-------9-------------------------------------------------------------------|
D|--8-11---8-or-6-then-------------------------------------------------------|
A|---------------------------------------------------------------------------|
E|---------------------------------------------------------------------------|
===============================================================================
Tap to rate this tab
# A B C D E F G H I J K L M N O P Q R S T U V W X Y Z