Song name
# A B C D E F G H I J K L M N O P Q R S T U V W X Y Z

Mogwai - Glosgow Mega-snake tab

\ and / = Slide

Sorry I don't have the rest of the song but there's a lot going on...


   
e|-------------------8---------------0---------7---|
B|-8-----------8-----------8\7-7-----------7-------|
G|-----9-9---9-----9-----9---------8-----8---------|
D|---9-----9-----9-----9---------9-----9-----9---9-|
A|-------------------------------------------------|
E|-------------------------------------------------|

   1 + 2 + 3 + 4 + 1 + 2 + 3 + 4 + 1 + 2 + 3 + 4 +   
   
e|---------------0---------------------------0-----0-|
B|--------10--------10--------0--0-0-------0-----0---|
G|-8/11-11-----11--11---11/12--12----12\11-----11----|
D|-----0-----0---------0-----------------------------|
A|---------------------------------------------------|
E|---------------------------------------------------|

   1 + 2 + 3 + 4 + 1 + 2 + 3 + 4 + 1  +  2 + 3 + 4 +   
Tap to rate this tab
# A B C D E F G H I J K L M N O P Q R S T U V W X Y Z