Song name
# A B C D E F G H I J K L M N O P Q R S T U V W X Y Z

Mogwai - Emergency Trap tab

-------------------------------------------------------------------------------
			     Emergency Trap - Mogwai
-------------------------------------------------------------------------------
Tabbed by: Wade Abbott
Email: wadeab@hotmail.com

Tuning: Standard
Guitar 1
e|---------------------------------------------------------------------------|
B|---------------------------------------------------------------------------|
G|---------------------------------------------------------------------------|
D|---------------------------------------------------------------------------|
A|--5-continuously strummed--------------------------------------------------|
E|---------------------------------------------------------------------------|
Guitar 2
e|---------------------------------------------------------------------------|
B|-8-7----------------8-7----------------------------------------------------|
G|-----6-7---x4-then------6-7-7----------------------------------------------|
D|---------------------------------------------------------------------------|
A|---------------------------------------------------------------------------|
E|---------------------------------------------------------------------------|
Guitar 1 (Still continuously strummed)
e|---------------------------------------------------------------------------|
B|---------------------------------------------------------------------------|
G|---------------------------------------------------------------------------|
D|---------------------------------------------------------------------------|
A|-5--9----------------------------------------------------------------------|
E|-------5--3----------------------------------------------------------------|
Guitar 2 (The 5 on A only plays when guitar 1 is strumming it)
e|---------------------------------------------------------------------------|
B|----8---7---7--------------------------------------------------------------|
G|--7---7---7---7--6-6-6-7---7-7-7-------6-6-4-6/7---7-7-7-------------------|
D|-----------------x-x-x-x---x-x-x---or--------------------------------------|
A|-----------------5-5-5-5---5-5-5-------------------------------------------|
E|---------------------------------------------------------------------------|
Guitar 2
e|---------------------------------------------------------------------------|
B|---------------------------------------------------------------------------|
G|-4-4-4-4-4-4-4-4-6-6-6-7---7-7-7-------------------------------------------|
D|-5-5-5-5-5-5-5-5-5-5-5-5---5-5-5-------------------------------------------|
A|---------------------------------------------------------------------------|
E|---------------------------------------------------------------------------|
Outro (Harmonics on 7)
e|---------------------------------------------------------------------------|
B|--------------------------------------7+-x16-------------------------------|
G|--7+-x16--------7+-x16--------7+-x16---------------------------------------|
D|---------7+-x16--------7+-x16----------------------------------------------|
A|---------------------------------------------------------------------------|
E|---------------------------------------------------------------------------|

e|---------------------------------------------------------------------------|
B|-------------------7+------------------------------------------------------|
G|--7+-x16-------------------------------------------------------------------|
D|---------7+-7+-7+----------------------------------------------------------|
A|---------------------------------------------------------------------------|
E|---------------------------------------------------------------------------|



| /  slide up
| \  slide down
| h  hammer-on
| p  pull-off
| ~  vibrato
| +  harmonic
| x  Mute note
===============================================================================
Tap to rate this tab
# A B C D E F G H I J K L M N O P Q R S T U V W X Y Z