Song name
# A B C D E F G H I J K L M N O P Q R S T U V W X Y Z

Mogwai - Were No Here tab

-------------------------------------------------------------------------------
			     We're No Here - Mogwai
-------------------------------------------------------------------------------
Tabbed by: Wade Abbott
Email: wadeab@hotmail.com

Tuning: Standard

Opens with feedback on the 9th and 17th fret of e

Guitars 1&2 play the same thing until about the bridge.

Intro Clean (0:14)
e|---------------------------------------------------------------------------|
B|---------------------------------------------------------------------------|
G|-10-12-14-14-14-15-14-12-9-9-10-12-14-10-14-15-14-12-9-9-10-12-------------|
D|-0--0--0--0--0--0--0--0--0-0-0--0--0--0--0--0--0--0--0-0-0--0--------------|
A|---------------------------------------------------------------------------|
E|---------------------------------------------------------------------------|
Cont. x2 (0:34)
e|---------------------------------------------------------------------------|
B|---------------------------------------------------------------------------|
G|-14-14-14-15-14-12-9-9-10-12-----------------------------------------------|
D|-0--0--0--0--0--0--0-0-0--0------------------------------------------------|
A|---------------------------------------------------------------------------|
E|---------------------------------------------------------------------------|
Part I: Heavy Distortion (0:53)
e|---------------------------------------------------------------------------|
B|---------------------------------------------------------------------------|
G|-14-14-14-15-14-12-9-9-10-12-----------------------------------------------|
D|-0--0--0--0--0--0--0-0-0--0------------------------------------------------|
A|---------------------------------------------------------------------------|
E|---------------------------------------------------------------------------|
Part II (1:02)
e|---------------------------------------------------------------------------|
B|---------------------------------------------------------------------------|
G|-14-14-14-15-14-12-9-9-17-15-----------------------------------------------|
D|-0--0--0--0--0--0--0-0-0--0------------------------------------------------|
A|---------------------------------------------------------------------------|
E|---------------------------------------------------------------------------|
Part I: x2 (1:11)
Part III: (1:29)
e|---------------------------------------------------------------------------|
B|---------------------------------------------------------------------------|
G|-14-10-14-15-14-12-9-9-17-15-----------------------------------------------|
D|-0--0--0--0--0--0--0-0-0--0------------------------------------------------|
A|---------------------------------------------------------------------------|
E|---------------------------------------------------------------------------|
Part IV (1:39)
e|---------------------------------------------------------------------------|
B|---------------------------------------------------------------------------|
G|-14-10-14-15-14-12-9-9-0-2-------------------------------------------------|
D|-0--0--0--0--0--0--0-0-0-0-------------------------------------------------|
A|---------------------------------------------------------------------------|
E|---------------------------------------------------------------------------|
Part V (1:48)
e|---------------------------------------------------------------------------|
B|---------------------------------------------------------------------------|
G|-5-2-5-7-7-5-0-0-10-12-----------------------------------------------------|
D|-0-0-0-0-0-0-0-0-0--0------------------------------------------------------|
A|---------------------------------------------------------------------------|
E|---------------------------------------------------------------------------|
Part VI (1:57)
e|---------------------------------------------------------------------------|
B|---------------------------------------------------------------------------|
G|-14-14-14-15-14-12-9-9-9-9-9-----------------------------------------------|
D|-0--0--0--0--0--0--0-0-0-0-0-----------------------------------------------|
A|---------------------------------------------------------------------------|
E|---------------------------------------------------------------------------|
Part VII:x2 (Continuous Strumming) (2:05)
e|---------------------------------------------------------------------------|
B|---------------------------------------------------------------------------|
G|-7-(x10)-10-(x4)-7-(x2)-9-(x10)-12-(x2)-10-(x10)-12-(x4)-10-(x2)-9-(x12)---|
D|-0-------0-------0------0-------0-------0--------0-------0-------0---------|
A|---------------------------------------------------------------------------|
E|---------------------------------------------------------------------------|

After this the 2 guitars do different riffs (2:41 into the song)

Guitar 1 Pt.1 (right speaker) x4 (after 2x he turns on a phaser)
e|---------------------------------------------------------------------------|
B|---------------------------------------------------------------------------|
G|---------6-----------------------------------------------------------------|
D|-7-------x-(x12)-5--------3------------------------------------------------|
A|-7-(x16)-4-------5-(x16)--3-(x12)------------------------------------------|
E|-5---------------3--------1------------------------------------------------|
Guitar 2 (left speaker) Heavier Distortion (I use a little delay)
e|---------------------------------------------------------------------------|
B|---------------------------------------------------------------------------|
G|-14--15--14--14--17--19--14--15--14--9--7--10--12--------------------------|
D|---------------------------------------------------------------------------|
A|---------------------------------------------------------------------------|
E|---------------------------------------------------------------------------|
Guitar 2 Cont. (2:59)
e|---------------------------------------------------------------------------|
B|---------------------------------------------------------------------------|
G|-14--15--14--14--10--9--7--10--9--7--10--12--------------------------------|
D|---------------------------------------------------------------------------|
A|---------------------------------------------------------------------------|
E|---------------------------------------------------------------------------|
Guitar 2 Cont. (3:18)
e|-----------------------------17--18--17------------------------------------|
B|---------------------18--20--------------17--15----------------------------|
G|-14--15--14--19--21------------------------------15------------------------|
D|---------------------------------------------------------------------------|
A|---------------------------------------------------------------------------|
E|---------------------------------------------------------------------------|
Guitar 2 Cont. (3:36)
e|---------------------------------------------------------------------------|
B|---------------------------------------------------------------------------|
G|-14--15--14--14--10--9--7--10--9--7--10--12--------------------------------|
D|---------------------------------------------------------------------------|
A|---------------------------------------------------------------------------|
E|---------------------------------------------------------------------------|
Guitar 1&2 (3:54)
e|---------------------------------------------------------------------------|
B|---------------------------------------------------------------------------|
G|-14-14-14-15-14-12-9-5-17-15-----------------------------------------------|
D|-0--0--0--0--0--0--0-0-0--0------------------------------------------------|
A|---------------------------------------------------------------------------|
E|---------------------------------------------------------------------------|
Guitar 1&2 (4:03)
e|---------------------------------------------------------------------------|
B|---------------------------------------------------------------------------|
G|-14-10-14-15-14-12-9-5-5-5-------------------------------------------------|
D|-0--0--0--0--0--0--0-0-0-0-------------------------------------------------|
A|---------------------------------------------------------------------------|
E|---------------------------------------------------------------------------|
Guitar 1&2 (4:12)
e|---------------------------------------------------------------------------|
B|---------------------------------------------------------------------------|
G|-14-14-14-15-14-12-9-5-17-15-----------------------------------------------|
D|-0--0--0--0--0--0--0-0-0--0------------------------------------------------|
A|---------------------------------------------------------------------------|
E|---------------------------------------------------------------------------|
Guitar 1 (4:21)
e|---------------------------------------------------------------------------|
B|---------------------------------------------------------------------------|
G|-14-10-14-15-14-12---------------------------------------------------------|
D|-0--0--0--0--0--0-------8--------------------------------------------------|
A|------------------------8-(x12)--------------------------------------------|
E|------------------------6--------------------------------------------------|
Guitar 2 (4:21)
e|---------------------------------------------------------------------------|
B|---------------------------------------------------------------------------|
G|-14-10-14-15-14-12-9~----10-9----------------------------------------------|
D|-0--0--0--0--0--0--0~----0--0----------------------------------------------|
A|---------------------------------------------------------------------------|
E|---------------------------------------------------------------------------|
Guitar 1 (4:30) until end of song
e|---------7+-7+-7+-7+-7+-7+------------5+-5+-5+-----------------------------|
B|---------7+-7+-7+-7+-7+-7+------------5+-5+-5+-----------------------------|
G|---------7+-7+-7+-7+-7+-7+------------5+-5+-5+-----------------------------|
D|-7--7--7---------------------3--3--3------------------------7--------------|
A|-7--7--7---------------------3--3--3--------------ends on---7--------------|
E|-5--5--5---------------------1--1--1------------------------5--------------|
Guitar 2 (4:30) until end of song
e|---------------------------------------------------------------------------|
B|---------------------------------------------------------------------------|
G|-7--------10-9----------------9---10------10-9-----------------------------|
D|-0--------0--0----------------0---0-------0--0-----------------------------|
A|---------------------------------------------------------------------------|
E|---------------------------------------------------------------------------|

End with heavy feedback

| /  slide up
| \  slide down
| h  hammer-on
| p  pull-off
| ~  vibrato
| +  harmonic
| x  Mute note
===============================================================================
Tap to rate this tab
# A B C D E F G H I J K L M N O P Q R S T U V W X Y Z