Guitaretab - guitar tabs
Song name
# A B C D E F G H I J K L M N O P Q R S T U V W X Y Z

Mogwai - Ithica 279 tab

Mogwai
Ithica 279
Ten Rapid

Intro [Guitar 1 (Low Volume)]
Eb ----------------|----------------|----------------|----------------|
G  ----------------|----------------|7h7h7h7h7h7h7h7h|7h7h7h7h7h7h7h7h|
G  ----------------|----------------|0-0-0-0-0-0-0-0-|0-0-0-0-0-0-0-0-|
Eb 0-0-0-0-0-0-0-0-|0-0-0-0-0-0-0-0-|0-0-0-0-0-0-0-0-|0-0-0-0-0-0-0-0-|
Ab 0-0-0-0-0-0-0-0-|0-0-0-0-0-0-0-0-|0-0-0-0-0-0-0-0-|0-0-0-0-0-0-0-0-|
Eb ----------------|----------------|----------------|----------------|

Both Guitars [Guitar 1 plays the harmonics]                     play x2
Eb ----------------|----------------|----------------|----------------|
G  ----------------|----------------|----------------|----------------|
G  ----------------|----------------|----------------|7h--------------|
Eb ----7-----7---0-|----7h------7h--|----7-----7---0-|----7h------7h--|
Ab --6-----6-----0-|7h------7h------|--6-----6-----0-|--------7h------|
Eb 4-----4-----4---|----------------|4-----4-----4---|----------------|

Eb ----------------|----------------|----------------|----------------|
G  ----------------|----------------|----------------|----------------|
G  ----------------|----------------|----------------|----------------|
Eb ----7-----7---0-|----7h------7h--|----7-----7---0-|0--0-0-0-0-0-0-0|
Ab --6-----6-----0-|7h------7h------|--6-----6-----0-|0--0-0-0-0-0-0-0|
Eb 4-----4-----4---|----------------|4-----4-----4---|----------------|
[ Tab from: http://www.guitaretab.com/m/mogwai/77756.html ]
Chorus 1 [Guitar 1]
Eb ----------------|----------------|----------------|----------------|
G  3-3-3-3-3-3-3-3-|5-5-5-5-5-5-5-5-|0-0-0-0-0-0-0-0-|8-8-8-8-8-8-8-8-|
G  3-3-3-3-3-3-3-3-|5-5-5-5-5-5-5-5-|0-0-0-0-0-0-0-0-|8-8-8-8-8-8-8-8-|
Eb 0-0-0-0-0-0-0-0-|0-0-0-0-0-0-0-0-|0-0-0-0-0-0-0-0-|0-0-0-0-0-0-0-0-|
Ab 0-0-0-0-0-0-0-0-|0-0-0-0-0-0-0-0-|0-0-0-0-0-0-0-0-|0-0-0-0-0-0-0-0-|
Eb ----------------|----------------|----------------|----------------|
Chorus 1 [Guitar 2]
Eb ----------------|----------------|----------------|----------------|
G  3-3-3-3-3-3-3-3-|0-0-0-0-0-0-0-0-|8-8-8-8-8-8-8-8-|7-7-7-7-7-7-7-7-|
G  3-3-3-3-3-3-3-3-|0-0-0-0-0-0-0-0-|8-8-8-8-8-8-8-8-|7-7-7-7-7-7-7-7-|
Eb 0-0-0-0-0-0-0-0-|0-0-0-0-0-0-0-0-|0-0-0-0-0-0-0-0-|0-0-0-0-0-0-0-0-|
Ab 0-0-0-0-0-0-0-0-|0-0-0-0-0-0-0-0-|0-0-0-0-0-0-0-0-|0-0-0-0-0-0-0-0-|
Eb ----------------|----------------|----------------|----------------|
[Guitar 1]
Eb ----------------|----------------|----------------|----------------|
G  1010101010101010|5-5-5-5-5-5-5-5-|1212121212121212|1010101010101010|
G  1010101010101010|5-5-5-5-5-5-5-5-|1212121212121212|1010101010101010|
Eb 0-0-0-0-0-0-0-0-|0-0-0-0-0-0-0-0-|0-0-0-0-0-0-0-0-|0-0-0-0-0-0-0-0-|
Ab 0-0-0-0-0-0-0-0-|0-0-0-0-0-0-0-0-|0-0-0-0-0-0-0-0-|0-0-0-0-0-0-0-0-|
Eb ----------------|----------------|----------------|----------------|
[Guitar 2]
Eb ----------------|----------------|----------------|----------------|
G  3-3-3-3-3-3-3-3-|5-5-5-5-5-5-5-5-|1212121212121212|1212121212121212|
G  3-3-3-3-3-3-3-3-|5-5-5-5-5-5-5-5-|1212121212121212|1212121212121212|
Eb 0-0-0-0-0-0-0-0-|0-0-0-0-0-0-0-0-|0-0-0-0-0-0-0-0-|0-0-0-0-0-0-0-0-|
Ab 0-0-0-0-0-0-0-0-|0-0-0-0-0-0-0-0-|0-0-0-0-0-0-0-0-|0-0-0-0-0-0-0-0-|
Eb ----------------|----------------|----------------|----------------|

Both Guitars [Guitar 1 plays the harmonics and low volume notes]
Eb ----------------|----------------|----------------|----------------|
G  ----------------|----------------|----------------|----------------|
G  ----------------|------------7h--|----------------|----7h----------|
Eb ----7-----7---0-|----7h----------|----7-----7---0-|7h--------------|
Ab --6-----6-----0-|7h------7h------|--6-----6-----0-|--------7h--7h--|
Eb 4-----4-----4---|----------------|4-----4-----4---|----------------|

Eb ----------------|----------------|----------------|----------------|
G  ----------------|----------------|----------------|----------------|
G  ----------------|------------7h--|----------------|----------------|
Eb ----7-----7---0-|----7h----------|----7-----7---0-|(0)--(0)--(0)---|
Ab --6-----6-----0-|7h------7h------|--6-----6-----0-|--(0)--(0)--(0)-|
Eb 4-----4-----4---|----------------|4-----4-----4---|----------------|

Chorus 2 [Guitar 1]
Eb ----------------|----------------|----------------|----------------|
G  3-3-3-3-3-3-3-3-|0-0-0-0-0-0-0-0-|5-5-5-5-5-5-5-5-|7-7-7-7-7-7-7-7-|
G  3-3-3-3-3-3-3-3-|0-0-0-0-0-0-0-0-|5-5-5-5-5-5-5-5-|7-7-7-7-7-7-7-7-|
Eb 0-0-0-0-0-0-0-0-|0-0-0-0-0-0-0-0-|0-0-0-0-0-0-0-0-|0-0-0-0-0-0-0-0-|
Ab 0-0-0-0-0-0-0-0-|0-0-0-0-0-0-0-0-|0-0-0-0-0-0-0-0-|0-0-0-0-0-0-0-0-|
Eb ----------------|----------------|----------------|----------------|

Chorus 2 [Guitar 2]
Eb ----------------|----------------|----------------|----------------|
G  3-3-3-3-3-3-3-3-|1010101010101010|8-8-8-8-8-8-8-8-|8-8-8-8-8-8-8-8-|
G  3-3-3-3-3-3-3-3-|1010101010101010|8-8-8-8-8-8-8-8-|8-8-8-8-8-8-8-8-|
Eb 0-0-0-0-0-0-0-0-|0-0-0-0-0-0-0-0-|0-0-0-0-0-0-0-0-|0-0-0-0-0-0-0-0-|
Ab 0-0-0-0-0-0-0-0-|0-0-0-0-0-0-0-0-|0-0-0-0-0-0-0-0-|0-0-0-0-0-0-0-0-|
Eb ----------------|----------------|----------------|----------------|

Chorus 2 [Guitar 1]
Eb ----------------|----------------|----------------|----------------|
G  1010101010101010|8-8-8-8-8-8-8-8-|1212121212121212|1313131313131313|
G  1010101010101010|8-8-8-8-8-8-8-8-|1212121212121212|1313131313131313|
Eb 0-0-0-0-0-0-0-0-|0-0-0-0-0-0-0-0-|0-0-0-0-0-0-0-0-|0-0-0-0-0-0-0-0-|
Ab 0-0-0-0-0-0-0-0-|0-0-0-0-0-0-0-0-|0-0-0-0-0-0-0-0-|0-0-0-0-0-0-0-0-|
Eb ----------------|----------------|----------------|----------------|

Chorus 2 [Guitar 2]
Eb ----------------|----------------|----------------|----------------|
G  1212121212121212|1313131313131313|1212121212121212|1212121212121212|
G  1212121212121212|1313131313131313|1212121212121212|1212121212121212|
Eb 0-0-0-0-0-0-0-0-|0-0-0-0-0-0-0-0-|0-0-0-0-0-0-0-0-|0-0-0-0-0-0-0-0-|
Ab 0-0-0-0-0-0-0-0-|0-0-0-0-0-0-0-0-|0-0-0-0-0-0-0-0-|0-0-0-0-0-0-0-0-|
Eb ----------------|----------------|----------------|----------------|

The Distortion Bit Kicks In Here
It's hard to tab this part so the best advice I can give is to
tremolo pick/slide/improvise on the 15/17/19/12th fret on both G strings
as well as pressing an a distortion or overdrive pedal of course. 

Then (Clean tone)...
Both Guitars play x4
Eb ----------------|
G  ----------------|
G  ----------------|
Eb ----7-----7---0-|
Ab --6-----6-----0-|
Eb 4-----4-----4---|
Related for Ithica 279 tab