Song name
# A B C D E F G H I J K L M N O P Q R S T U V W X Y Z

Mogwai - Travel Is Dangerous tab

This tab covers almost the whole track for the
rythm guitar, which plays the same through verse
and chorus. Just play around with it a little.

|-----------|-----------|-----------|-----------|
|-----------|-----------|-----------|-----------|
|-----------|-----------|-----------|-----------|
|6~~~~~~~~~~|~~~~~~~~~~~|~~~~~~~~~~~|~~~~~~~~~~~|
|4~~~~~~~~~~|~~~~~~~~~~~|~~~~~~~~~~~|~~~~~~~~~~~|
|-----------|-----------|-----------|-----------|

Repeat this a few times
|-----------|-----------|-----------|-----------|
|-----------|-----------|-----------|-----------|
|-----------|-----------|-----------|-----------|
|-----------|6-6---6-6--|6-6---6-6--|--7--------|
|----------4|----4-----4|----4-----4|5---7---4-4|
|-----------|-----------|-----------|------2----|

|-----------|-----------|-----------|-----------|
|-----------|-----------|-----------|-----------|
|-----------|-----------|-----------|-----------|
|-----------|--7-7---7-7|--7-7---7-7|--4-4---4-4|
|--4-4---4-2|5-----5----|5-----5----|2-----2----|
|2-----2----|-----------|-----------|-----------|

|-----------|-----------|-----------|-----------|
|-----------|-----------|-----------|-----------|
|-----------|-----------|-----------|-----------|
|--4-4---4--|6-6---6-6--|6-6---6-6--|--7--------|
|2-----2---4|----4-----4|----4-----4|5---4---4-4|
|-----------|-----------|-----------|------2----|

|-----------|-----------|-----------|-----------|
|-----------|-----------|-----------|-----------|
|-----------|-----------|-----------|-----------|
|-----------|--7-7---7-7|--4-4---4-4|--4-4---4--|
|--4-4---4-2|5-----5----|2-----2----|2-----2---4|
|2-----2----|-----------|-----------|-----------|

Then towards the end:
|-----------|-----------|-----------|-----------|
|-----------|-----------|-----------|-----------|
|-----------|------4----|-----------|1-----2----|
|--7-7---7-7|--7-7---7--|--4-4---4-4|--4-----4--|
|5-----5----|5----------|2-----2----|----2-----2|
|-----------|-----------|-----------|-----------|

|-----------|-----------|-----------|-----------|
|-----------|-----------|-----------|-----------|
|-----------|4-----6-4--|-----------|1-----2----|
|--7-7---7-7|--7--------|--4-4---4-4|--4-----4--|
|5-----5----|----5-----5|2-----2----|----2-----2|
|-----------|-----------|-----------|-----------|

|-----------|-----------|-----------|-----------|
|-----------|-----------|-----------|-----------|
|-----------|4----------|-----------|1-----2----|
|--7-7---7-7|----7------|--4-4---4-4|--4-----4--|
|5-----5----|--------5--|2-----2----|----2-----2|
|-----------|-----------|-----------|-----------|

|-----------|-----------|-----------|-----------|
|-----------|-----------|-----------|-----------|
|-----------|-----------|-----------|1-----2----|
|--7-7---7-7|4-----4----|--4-4---4-4|--4-----4--|
|5-----5----|--7-----7--|2-----2----|----2-----2|
|-----------|----5-----5|-----------|-----------|
Tap to rate this tab
 
# A B C D E F G H I J K L M N O P Q R S T U V W X Y Z