Song name
# A B C D E F G H I J K L M N O P Q R S T U V W X Y Z

Mogwai - Golden Porsche tab

Help us improve GuitareTab! Take a short survey!
-------------------------------------------------------------------------------
			     Golden Porsche - Mogwai
-------------------------------------------------------------------------------
Tabbed by: Wade Abbott
Email: wadeab@hotmail.com

A very very very easy song.

Tuning: Regular
Guitar 1
Part A (Right Speaker)
e|---------------------------------------------------------------------------|
B|---------------------------------------------------------------------------|
G|---------------------------------------------------------------------------|
D|--------1--2--4--4--------1--2--4--4---------------------------------------|
A|--2--4---------------2--4--------------------------------------------------|
E|---------------------------------------------------------------------------|
Part A Continued
e|---------------------------------------------------------------------------|
B|--2--0----------------2--0-------------------------------------------------|
G|--------1-----1-------------1----1h2p1-------------------------------------|
D|-----------4------2------------4--------2----------------------------------|
A|---------------------------------------------------------------------------|
E|---------------------------------------------------------------------------|
Piano Part
e|--5--4--2--0---------------------------------------------------------------|
B|---------------2--2--------------------------------------------------------|
G|---------------------------------------------------------------------------|
D|---------------------------------------------------------------------------|
A|---------------------------------------------------------------------------|
E|---------------------------------------------------------------------------|
Piano Part II (at the end of the other piano part.)
e|--5--7--2--0---------------------------------------------------------------|
B|--------------2--2---------------------------------------------------------|
G|---------------------------------------------------------------------------|
D|---------------------------------------------------------------------------|
A|---------------------------------------------------------------------------|
E|---------------------------------------------------------------------------|
Guitar 2 (Left Speaker)
Part I
e|---------------------------------------------------------------------------|
B|---------------------------------------------------------------------------|
G|---4-----and sometimes it plays ----2--------------------------------------|
D|---------------------------------------------------------------------------|
A|---------------------------------------------------------------------------|
E|---------------------------------------------------------------------------|

Not a very interesting song for guitar...

| /  slide up
| \  slide down
| h  hammer-on
| p  pull-off
| ~  vibrato
| +  harmonic
| x  Mute note
===============================================================================
Related for Golden Porsche tab