Song name
# A B C D E F G H I J K L M N O P Q R S T U V W X Y Z

Mogwai - Acid Food tab

                             Mogwai - Acid Food
________________________________________________________________________________

Tabbed by Matt Koop

Tuning: Standard

This song is really simple, it\'s just a D to A chord progression with alternating lead 
over it.  There\'s a slide guitar in the background too, which could be picked up pretty 
by ear.

Rhythm
     D              A
e|----------------------|
B|---3--------------2---|
G|---2--------------2---|
D|---0--------------2---|
A|------------------0---|
E|----------------------|

...Then the rest of the verses are just the light strumming of these two chords, while 
guitar during choruses instead plays the root notes of the chords...

Lead riff 1

e|-10p9-----------|
B|------10--------|
G|---------9\\7---|
D|----------------|
A|----------------|
E|----------------|

Lead riff 2

e|-------------|
B|-------------|
G|-------------|
D|-------------|
A|-----0-------|
E|-0h2---0-2---|

Chorus guitar

e|-------------|
B|-------------|
G|-------------|
D|-------------|
A|-4-4--4--4-0-|
E|-------------|

Lyrics

What happened after the storm?
Was everyone okay?
I tried to call again,
I think they\'ve gone away

(We\'ll come back the other way)
(We\'ll come back the other way)
(We\'ll come back the other way)
(We\'ll come back the other way)

I dreamt of an ice-age today
Cold and white to see
I walked for miles and miles
They came back another way

We learned them as we went,
Forgot them straightaway,
The ones we\'ve left behind
The ones we sent away.

(We\'ll come back the other way)
(We\'ll come back the other way)
(We\'ll come back the other way)
(We\'ll come back the other way)
Tap to rate this tab
 
# A B C D E F G H I J K L M N O P Q R S T U V W X Y Z