Song name
# A B C D E F G H I J K L M N O P Q R S T U V W X Y Z

Mohamed Mounir - Ezay tab

محمد منير :ازاي

This Is Mohamed Mounir's Song : Ezay

This Is The Intro :


|----7-7-7-7-7--5-5-5--7-7-7-7-7--5-5-5--7-7-7-7-7-5-5-5-----------0-5-7-|
|-------------------------------------------------------7-7-7-7-7--------|
|------------------------------------------------------------------------|
|------------------------------------------------------------------------|
|------------------------------------------------------------------------|
|------------------------------------------------------------------------|




|-------------------------------------------------------------------------|
|-------------------------------------------------------------------------|
|-------------4------------4----------------------------------------------|
|-----7-------4------7-----4------7-------4-------------------------------|
|-----7-------2------7-----2------7-------4-------------------------------|
|-----5--------------5------------5-------2-------------------------------|




For Correction :
Youssef.menissy@gmail.com




I hope You Like It :)



اعتقد انها  صح بس لو في حاجة غلط ابعتولي علي الe-mail
دة
Tap to rate this tab
# A B C D E F G H I J K L M N O P Q R S T U V W X Y Z