Song name
# A B C D E F G H I J K L M N O P Q R S T U V W X Y Z

Mohit Chauhan - Saada Haq tab

song: saada haq from the movie ROCKSTAR(Ranbir Kapoor)

This is the original tabs played by the team.

so the tuning will be:Drop D

Intro goes something like this

e-------------------------------------------|
B-------------------------------------------|
G-------------------------------------------|
D-------------------------------------------|
A--4-----5--4--2---4------5---4--2----4-----|
D-----4---------------4-----------------4---|


Riffs played during --"Saada haq eethe rakh"
(- -) the space means that there is palm mute

e------------------------------------------------------|
B------------------------------------------------------|
G------------------------------------------------------|
D-----------------------6-6- --6-6- -------------------|
A---4-4- --4-4- --------4-4- --4-4- ---0-0- --0-0-- ---|
D---4-4- --4-4- -----------------------0-0-- -0-0-- ---|
Tap to rate this tab
# A B C D E F G H I J K L M N O P Q R S T U V W X Y Z