Guitaretab - guitar tabs
Song name
# A B C D E F G H I J K L M N O P Q R S T U V W X Y Z

Moi Dix Mois - Night Breed tab

                                      MOI DIX MOIS ~ NIGHT BREED

Well, this is one of my favorites songs of Mana-sama.
He's one of my inspirations for play guitar *w*

A day in my house, I was bored and when I noticed, I'm playing the complete song xD
Is my first upload so, sorry for any error in the tab and in my english
I'm spanish ^^Uu
                    Here is the song...

Intro and verse
[ Tab from: http://www.guitaretab.com/m/moi-dix-mois/178380.html ]
e|----------------------------------|
B|----------------------------------|
G|----------------------------------|
D|--0--0--0--0--1-1--0--0--0--0--0--|
A|--0--0--0--0--1-1--0--0--0--0--0--|
E|--0--0--0--0--2-2--0--0--0--0--0--|

Chorus

e|----------------------------------|
B|----------------------------------|
G|----------------------------------|
D|------------------------------1-2-|
A|------------------------------1-2-|
E|--000000430-1000-430-1000-430-2-3-|

Is an easy song, only have to find the rythm
and where play the parts...
                                         ><  ~ DIX! ~ rlz
Related for Night Breed tab
Advertisement will be closed in 10 seconds