Song name
# A B C D E F G H I J K L M N O P Q R S T U V W X Y Z

Moi Dix Mois - Unmoved tab

----------------------------------------------------------------------------
			     Unmoved - Moi Dix Mois
----------------------------------------------------------------------------
Tabbed by: SlickNiK105
Email: slicknikp@gmail.com

Tuning: normal

NOTE: For the fast hammer-ons and pull-offs in the VERSE, I did not include the "h" and "p"
between the notes because it is easier to see the timing and how it relates to what Guitar
2 is playing.


INTRO
      Guitar 1 plays this (right)          Guitar 2 plays this (left)
e|-----------------|-----------------|-----------------|-----------------|
B|-----------------|-----------------|-----------------|-----------------|
G|-----------------|-----------------|-----------------|-----------------|
D|-----------------|-----------------|-----------------|-----------------|
A|-----------------|-----------------|-----------------|-----------------|
E|-0-1-0-4-3-0-1-0-|-4-3-0-1---------|-0-1-0-4-3-0-1-0-|-4-3-0-1---------|

                                       Guitar 2 plays (left) but at the end,
      Guitar 1 plays this (right)        Guitar 1 plays the higher notes
e|-----------------|-----------------|-----------------|-----------------|
B|-----------------|-----------------|-----------------|---------------6-|
G|-----------------|-----------------|-----------------|-------------4---|
D|-----------------|-----------------|-----------------|---------2-3---3-|
A|-----------------|-----------------|-----------------|-------------2---|
E|-0-1-0-4-3-0-1-0-|-4-3-0-1---------|-0-1-0-4-3-0-1-0-|-4-3-0-1-0-1-----|

        Both guitars play
e||-----------------|-----------------||
B||-----------------|-----------------||
G||-----------------|-----------------|| x4
D||-----------------|-----------------||
A||-----------------|-----------------||
E||-0-1-0-4-3-0-1-0-|-4-3-0-1---------||


PRE-VERSE

Guitar 1
e|-----------------|-----------------|-----------------|-----------------|
B|-----------------|-----------------|-----------------|-----------------|
G|-----------------|-----------------|-----------------|-xxxx5---xxxx8\--|
D|---2---2-1-2-3-2-|---2---2-1-2/5-4-|---2---2-1-2-3-2-|-xxxx5---xxxx7\--|
A|-----------------|-----------------|-----------------|-xxxx3---xxxx6\--|
E|-0---------------|-0---------------|-0---------------|-----------------|
Guitar 2           |                 |                 |                 |
e|-----------------|-----------------|-----------------|-----------------|
B|-----------------|-----------------|-----------------|-----------------|
G|-----------------|-----------------|-----------------|-xxxx5---xxxx2---|
D|-2-2-------------|-----------------|-----------------|-xxxx5---xxxx1---|
A|-2-2-------------|-----------------|-----------------|-xxxx3---xxxx0---|
E|-0-0-------------|-----------------|-----------------|-----------------|


e|-----------------|-----------------|-----------------|-----------------|
B|-----------------|-----------------|-----------------|-----------------|
G|-----------------|-----------------|-----------------|-xxxx5/--8-------|
D|---2---2-1-2-3-2-|---2---2-1-2/5-4-|---2---2-1-2-3-2-|-xxxx5/--7-------|
A|-----------------|-----------------|-----------------|-xxxx3/--6-------|
E|-0---------------|-0---------------|-0---------------|-----------------|
 |                 |                 |                 |                 |
e|-----------------|-----------------|-----------------|-----------------|
B|-----------------|-----------------|-----------------|-----------------|
G|-----------------|-----------------|-----------------|-xxxx5\--2-------|
D|-2---------------|-2-2-------------|-2---------------|-xxxx5\--1-------|
A|-2---------------|-2-2-------------|-2---------------|-xxxx3\--0-------|
E|-0---------------|-0-0-------------|-0---------------|-----------------|
                                       ^
                                 let this note ring

e||-----------------|-----------------|-----------------|-----------------||
B||-----------------|-----------------|-----------------|-----------------||
G||-----------------|-----------------|-----------------|-----------------||
D||---2---2-1-2-3-2-|---2---2-1-2/5-4-|---2---2-1-2-3-2-|-----------------||
A||-----------------|-----------------|-----------------|-----------------||
E||-0---------------|-0---------------|-0---------------|-----------------||
 ||                 |                 |                 |                 || x2
e||-----------------|-----------------|-----------------|-----------------||
B||-----------------|-----------------|-----------------|-----------------||
G||-----------------|-----------------|-----------------|-xxxx5---xxxx8---||
D||---2---2-1-2-3-2-|---2---2-1-2/5-4-|---2---2-1-2-3-2-|-xxxx5---xxxx7---||
A||-----------------|-----------------|-----------------|-xxxx3---xxxx6---||
E||-0---------------|-0---------------|-0---------------|-----------------||


e|-----------------|---3-3---3-3---3-|
B|-----------------|---2-2---2-2---2-|
G|-----------------|---0-0---0-0---0-|
D|-3-----3-----3---|-----------------|
A|-1-2-2-1-2-2-1-2-|-2---------------|
E|---0-0---0-0---0-|-0---------------|
 |  (palm-mute the E power chords)   |
e|-----------------|-----------------|
B|-----------------|-----------------|
G|-----------------|-----------------|
D|-3-----3-----3---|-----------------|
A|-1-2-2-1-2-2-1-2-|-2-5-5---5-5---5-|
E|---0-0---0-0---0-|-0-3-3---3-3---3-|
    (palm-mute the E power chords)


VERSE

e|-----------------|-----------------|-----------------|-----------------|
B|-----------------|-----------------|-----------------|-------------2p1-|
G|-----------------|-----------------|-----------------|-----5-----------|
D|---2---2-3-0-3-2-|---2---2-3-0-3-2-|---2---2-3-0-3-2-|-----5-----------|
A|-----------------|-----------------|-----------------|-----3-----------|
E|-0---------------|-0---------------|-0---------------|-----------------|
 |                 |                 |                 |                 |
e|-----------------|-----------------|-----------------|-----------------|
B|-----------------|-----------------|-----------------|-----------------|
G|-----------------|-----------------|-----------------|-5------/8-------|
D|---2---2-3-0-3-2-|---2---2-3-0-3-2-|---2---2-3-0-3-2-|-5------/7-------|
A|-----------------|-----------------|-----------------|-3------/6-------|
E|-0---------------|-0---------------|-0---------------|-----------------|

                                                  (hammer-ons and pull-offs)
e|-----------------|-----------------|-----------------|-----------------|
B|-----------------|-----------------|-----------------|-1212121232323232|
G|-----------------|-----------------|-----------------|-----------------|
D|---2---2-3-0-3-2-|---2---2-3-0-3-2-|---2---2-3-0-3-2-|-----------------|
A|-----------------|-----------------|-----------------|-----------------|
E|-0---------------|-0---------------|-0---------------|-----------------|
 |                 |                 |                 |                 |
e|-----------------|-----------------|-----------------|-----------------|
B|-----------------|-----------------|-----------------|-----------------|
G|-----------------|-----------------|-----------------|-----5-------2---|
D|---2---2-3-0-3-2-|---2---2-3-0-3-2-|---2---2-3-0-3-2-|-----5-------1---|
A|-----------------|-----------------|-----------------|-3---3---0---0---|
E|-0---------------|-0---------------|-0---------------|-----------------|


e|-----------------|-----------------|-----------------|-----------------|
B|-----------------|-----------------|-----------------|-------------2p1-|
G|-----------------|-----------------|-----------------|-----5-----------|
D|---2---2-3-0-3-2-|---2---2-3-0-3-2-|---2---2-3-0-3-2-|-----5-----------|
A|-----------------|-----------------|-----------------|-----3-----------|
E|-0---------------|-0---------------|-0---------------|-----------------|
 |                 |                 |                 |                 |
e|-----------------|-----------------|-----------------|-----------------|
B|-----------------|-----------------|-----------------|-----------------|
G|-----------------|-----------------|-----------------|-5------/8-------|
D|---2---2-3-0-3-2-|---2---2-3-0-3-2-|---2---2-3-0-3-2-|-5------/7-------|
A|-----------------|-----------------|-----------------|-3------/6-------|
E|-0---------------|-0---------------|-0---------------|-----------------|

                                                         (pull-offs)
e|-----------------|-----------------|-----------------|-----------------|
B|-----------------|-----------------|-----------------|-----321-----6p5-|
G|-----------------|-----------------|-----------------|-----------------|
D|---2---2-3-0-3-2-|---2---2-3-0-3-2-|---2---2-3-0-3-2-|-----------------|
A|-----------------|-----------------|-----------------|-----------------|
E|-0---------------|-0---------------|-0---------------|-----------------|
 |                 |                 |                 |                 |
e|-----------------|-----------------|-----------------|-----------------|
B|-----------------|-----------------|-----------------|-----------------|
G|-----------------|-----------------|-----------------|-5-5-5---2-2-2---|
D|---2---2-3-0-3-2-|---2---2-3-0-3-2-|---2---2-3-0-3-2-|-5-5-5---1-1-1---|
A|-----------------|-----------------|-----------------|-3-3-3---0-0-0---|
E|-0---------------|-0---------------|-0---------------|-----------------|
                                                        |p.m|   |p.m|

PRE-CHORUS

e||-----------------|-----------------|-----------------|-----------------||
B||-----------------|-----------------|-----------------|-----------------||
G||-----------------|-----------------|-----------------|-xxxx5---xxxx8---||
D||---2---2-1-2-3-2-|---2---2-1-2/5-4-|---2---2-1-2-3-2-|-xxxx5---xxxx7---||
A||-----------------|-----------------|-----------------|-xxxx3---xxxx6---||
E||-0---------------|-0---------------|-0---------------|-----------------||
 ||                 |                 |                 |                 || x2
e||-----------------|-----------------|-----------------|-----------------||
B||-----------------|-----------------|-----------------|-----------------||
G||-----------------|-----------------|-----------------|-xxxx5---xxxx2---||
D||---2---2-1-2-3-2-|---2---2-1-2/5-4-|---2---2-1-2-3-2-|-xxxx5---xxxx1---||
A||-----------------|-----------------|-----------------|-xxxx3---xxxx0---||
E||-0---------------|-0---------------|-0---------------|-----------------||

 (palm-mute E power chords)
e|-----------------|
B|-----------------|
G|-----------------|
D|-3-----3-----3---|
A|-1-2-2-1-2-2-1-2-|
E|---0-0---0-0---0-|
 |                 |
e|-----------------|
B|-----------------|
G|-----------------|
D|-3-----3-----3---|
A|-1-2-2-1-2-2-1-2-|
E|---0-0---0-0---0-|
 (palm-mute E power chords)


CHORUS

e|-----------------|-----------------|-----------------|-----------------|
B|-----------------|-----------------|-------------15--|-13--------------|
G|-10-----/14------|-12--------------|-13----------16--|-14--------------|
D|-10-----/14------|-12--9---10--12--|-14----14--------|-----10--12--14--|
A|-----------------|-----10--12--14--|-------11--------|-----------------|
E|-----------------|-----------------|-----------------|-----------------|
 |                 |                 |                 |                 |
e|-----------------|-----------------|-----------------|-----------------|
B|-----------------|-----------------|-----------------|-----------------|
G|-----------------|-----------------|-----------------|-----------------|
D|-----------------|-----------------|-----------------|-----------------|
A|-3-3333333-333333|-5-5555555-555555|-7-7777777-777777|-7-7777777-777777|
E|-1-1111111-111111|-3-3333333-333333|-4-4444444-444444|-5-5555555-555555|
(Guitar 2 is palm-muted)

e|-----------------|-----------------|-----------------|-----------------|
B|-----------------|-----------------|-----------------|---------------10|
G|/14----12----10--|-9-----7---------|/14----10----7---|-9---------9-10--|
D|/15----14----12--|-10----9---------|/13----12----9---|-10--9-10129-----|
A|-----------------|-----------------|-----------------|-----------------|
E|-----------------|-----------------|-----------------|-----------------|
 |                 |                 |                 |    |_____p.m___||
e|-----------------|-----------------|-----------------|-----------------|
B|-----------------|-----------------|-----------------|-----------------|
G|-----------------|-----------------|-----------------|-----------------|
D|-----------------|-----------------|-----------------|-5-----5-----5---|
A|-3-3333333-333333|-5-5555555-555555|-7-7777777-777777|-3-3-3-3-3-3-3---|
E|-1-1111111-111111|-3-3333333-333333|-4-4444444-444444|-----------------|
                                                          |p.m| |p.m|

e|-----------------|-----------------|-----------------|-----------------|
B|-----------------|-----------------|---------10--12--|-13--------------|
G|-10-----/14------|-12------10------|-13------7-------|-----------------|
D|-10-----/14------|-12------10------|-9---------------|-10--10--12--14--|
A|-----------------|-----------------|-----------------|-----------------|
E|-----------------|-----------------|-----------------|-----------------|
 |                 |                 |                 |                 |
e|-----------------|-----------------|-----------------|-----------------|
B|-----------------|-----------------|-----------------|-----------------|
G|-----------------|-----------------|-----------------|-----------------|
D|-----------------|-----------------|-----------------|-----------------|
A|-3-3333333-333333|-5-5555555-555555|-7-7777777-777777|-7-7777777-777777|
E|-1-1111111-111111|-3-3333333-333333|-4-4444444-444444|-5-5555555-555555|

e|-----------------|-----------------|
B|-----------------|-----------------|
G|/14--------------|/16------16------|
D|/15------15~~~~--|/17--------------|
A|-----------------|-----------------|
E|-----------------|-----------------|
 |                 |                 |
e|-----------------|-----------------|
B|-----------------|-----------------|
G|-----------------|-----------------|
D|-----------------|-----------------|
A|-3-3333333-333333|-5-5555555-555555|
E|-1-1111111-111111|-3-3333333-333333|


BRIDGE

e||-----------------|-----------------||
B||-----------------|-----------------||
G||-----------------|-----------------||
D||-----------------|-----------------||
A||-222222222-------|-222222222-2-3---||
E||-000000000-------|-000000000-0-1---||
 |||___pm____|      ||____pm_____|    || x4
e||-----------------|-----------------||
B||-----------------|-----------------||
G||-----------------|-----------------||
D||-----------------|-----------------||
A||-222222222-------|-222222222-2-3---||
E||-000000000-------|-000000000-0-1---||
   |___pm____|       |____pm_____|

e||-----------------|-----------------||
B||-----------------|-----------------||
G||-----------------|-----------------||
D||-----------------|-----------------||
A||-2-2-----2-2-----|-2-2-----2-2-----||
E||-0-0-----0-0-----|-0-0-----0-0-----||
 ||                 |                 || x2
e||-----------------|-----------------||
B||-----------------|-----------------||
G||-----------------|-----------------||
D||-----------------|-----------------||
A||-2-2-----2-2-----|-2-2-----2-2-----||
E||-0-0-----0-0-----|-0-0-----0-0-----||


e|-----------------|-----------------|-----------------|-----------------|
B|-----------------|-----------------|-----------------|-----------------|
G|-----------------|-----------------|-----------------|-----------------|
D|-----------------|-----------------|-----------------|-----------------|
A|-----------------|-----------------|-----------------|-----------------|
E|-0-1-0-4-3-0-1-0-|-4-3-0-1---------|-----------------|-----------------|
 |                 |                 |                 |                 |
e|-----------------|-----------------|-----------------|-----------------|
B|-----------------|-----------------|-----------------|-----------------|
G|-----------------|-----------------|-----------------|-----------------|
D|-----------------|-----------------|-----------------|-----------------|
A|-----------------|-----------------|-----------------|-----------------|
E|-----------------|-----------------|-0-1-0-4-3-0-1-0-|-4-3-0-1---------|


e|-----------------|-----------------|-----------------|-----------------|
B|-----------------|-----------------|-----------------|---------------6-|
G|-----------------|-----------------|-----------------|-------------4---|
D|-----------------|-----------------|-----------------|---------2-3-----|
A|-----------------|-----------------|-----------------|-----------------|
E|-0-1-0-4-3-0-1-0-|-4-3-0-1---------|-0-1-0-4-3-0-1-0-|-4-3-0-1---------|
 |                 |                 |                 |                 |
e|-----------------|-----------------|-----------------|-----------------|
B|-----------------|-----------------|-----------------|-----------------|
G|-----------------|-----------------|-----------------|-----------------|
D|-----------------|-----------------|-----------------|---------------3-|
A|-----------------|-----------------|-----------------|-------------2---|
E|-----------------|-----------------|-0-1-0-4-3-0-1-0-|-4-3-0-1-0-1-----|


e|-0---------------|-----------------|-----------------|-----------------|
B|-8---------------|-----------------|-----------------|-----------------|
G|-10b(12)~~~~~~~~~|~~~~~~~~---------|-----------------|-----------------|
D|-----------------|-----------------|-----------------|-----------------|
A|-----------------|---------x\------|-x/--------------|-----------------|
E|-----------------|-----------------|-----x\----------|------/11~~~~~~~~|
 |                 |                 |                 |                 |
e|-----------------|-----------------|-----------------|-----------------|
B|-----------------|-----------------|-----------------|-----------------|
G|-----------------|-----------------|-----------------|-----------------|
D|-----------------|-----------------|-----------------|-----------------|
A|-----------------|-----------------|-----------------|-----------------|
E|-0-1-0-4-3-0-1-0-|-4-3-0-1---------|-0-1-0-4-3-0-1-0-|-4-3-0-1---------|


e|-----------------|-----------------|-----------------|
B|-----------------|-----------------|-----------------|
G|-----------------|-----------------|-----------------|
D|-----------------|-----------------|-----------------|
A|-----------------|-----------------|-----------------|
E|-0-1-0-4-3-0-1-0-|-4-3-0-1---------|-0-1-0-4-3-0-1-0-|
 |                 |                 |                 |
e|-----------------|-----------------|-----------------|
B|-----------------|-----------------|-----------------|
G|-----------------|-----------------|-----------------|
D|-----------------|-----------------|-----------------|
A|-----------------|-----------------|-----------------|
E|-0-1-0-4-3-0-1-0-|-4-3-0-1---------|-0-1-0-4-3-0-1-0-|


PRE-VERSE

e|-----------------|-----------------|-----------------|-----------------|
B|-----------------|-----------------|-----------------|-----------------|
G|-----------------|-----------------|-----------------|-xxxx5---xxxx8\--|
D|---2---2-1-2-3-2-|---2---2-1-2/5-4-|---2---2-1-2-3-2-|-xxxx5---xxxx7\--|
A|-----------------|-----------------|-----------------|-xxxx3---xxxx6\--|
E|-0---------------|-0---------------|-0---------------|-----------------|
 |                 |                 |                 |                 |
e|-----------------|-----------------|-----------------|-----------------|
B|-----------------|-----------------|-----------------|-----------------|
G|-----------------|-----------------|-----------------|-xxxx5---xxxx2---|
D|-2-2-------------|-----------------|-----------------|-xxxx5---xxxx1---|
A|-2-2-------------|-----------------|-----------------|-xxxx3---xxxx0---|
E|-0-0-------------|-----------------|-----------------|-----------------|


e|-----------------|-----------------|-----------------|-----------------|
B|-----------------|-----------------|-----------------|-----------------|
G|-----------------|-----------------|-----------------|-xxxx5/--8-------|
D|---2---2-1-2-3-2-|---2---2-1-2/5-4-|---2---2-1-2-3-2-|-xxxx5/--7-------|
A|-----------------|-----------------|-----------------|-xxxx3/--6-------|
E|-0---------------|-0---------------|-0---------------|-----------------|
 |                 |                 |                 |                 |
e|-----------------|-----------------|-0---------------|-----------------|
B|-----------------|-----------------|-0---------------|-----------------|
G|-----------------|-----------------|-0---------------|-xxxx5\--2-------|
D|-2---------------|-2-2-------------|-2---------------|-xxxx5\--1-------|
A|-2---------------|-2-2-------------|-2---------------|-xxxx3\--0-------|
E|-0---------------|-0-0-------------|-0---------------|-----------------|


VERSE

e|-----------------|-----------------|-----------------|-----------------|
B|-----------------|-----------------|-----------------|-------------2p1-|
G|-----------------|-----------------|-----------------|-----5-----------|
D|---2---2-3-0-3-2-|---2---2-3-0-3-2-|---2---2-3-0-3-2-|-----5-----------|
A|-----------------|-----------------|-----------------|-----3-----------|
E|-0---------------|-0---------------|-0---------------|-----------------|
 |                 |                 |                 |                 |
e|-----------------|-----------------|-----------------|-----------------|
B|-----------------|-----------------|-----------------|-----------------|
G|-----------------|-----------------|-----------------|-5------/8-------|
D|---2---2-3-0-3-2-|---2---2-3-0-3-2-|---2---2-3-0-3-2-|-5------/7-------|
A|-----------------|-----------------|-----------------|-3------/6-------|
E|-0---------------|-0---------------|-0---------------|-----------------|

                                                  (hammer-ons and pull-offs)
e|-----------------|-----------------|-----------------|-----------------|
B|-----------------|-----------------|-----------------|-1212121232323232|
G|-----------------|-----------------|-----------------|-----------------|
D|---2---2-3-0-3-2-|---2---2-3-0-3-2-|---2---2-3-0-3-2-|-----------------|
A|-----------------|-----------------|-----------------|-----------------|
E|-0---------------|-0---------------|-0---------------|-----------------|
 |                 |                 |                 |                 |
e|-----------------|-----------------|-----------------|-----------------|
B|-----------------|-----------------|-----------------|-----------------|
G|-----------------|-----------------|-----------------|-----5-------2---|
D|---2---2-3-0-3-2-|---2---2-3-0-3-2-|---2---2-3-0-3-2-|-----5-------1---|
A|-----------------|-----------------|-----------------|-3---3---0---0---|
E|-0---------------|-0---------------|-0---------------|-----------------|


e|-----------------|-----------------|-----------------|-----------------|
B|-----------------|-----------------|-----------------|-------------2p1-|
G|-----------------|-----------------|-----------------|-----5-----------|
D|---2---2-3-0-3-2-|---2---2-3-0-3-2-|---2---2-3-0-3-2-|-----5-----------|
A|-----------------|-----------------|-----------------|-----3-----------|
E|-0---------------|-0---------------|-0---------------|-----------------|
 |                 |                 |                 |                 |
e|-----------------|-----------------|-----------------|-----------------|
B|-----------------|-----------------|-----------------|-----------------|
G|---4---4-5-2-5-4-|---4---4-5-2-5-4-|---4---4-5-2-5-4-|-5------/8-------|
D|-----------------|-----------------|-----------------|-5------/7-------|
A|-----------------|-----------------|-----------------|-3------/6-------|
E|-0---------------|-0---------------|-0---------------|-----------------|

                                                         (pull-offs)
e|-----------------|-----------------|-----------------|-----------------|
B|-----------------|-----------------|-----------------|-----321-----6p5-|
G|-----------------|-----------------|-----------------|-----------------|
D|---2---2-3-0-3-2-|---2---2-3-0-3-2-|---2---2-3-0-3-2-|-----------------|
A|-----------------|-----------------|-----------------|-----------------|
E|-0---------------|-0---------------|-0---------------|-----------------|
 |                 |                 |                 |                 |
e|-----------------|-----------------|-----------------|-----------------|
B|-----------------|-----------------|-----------------|-----------------|
G|---4---4-5-2-5-4-|---4---4-5-2-5-4-|---4---4-5-2-5-4-|-5-5-5---2-2-2---|
D|-----------------|-----------------|-----------------|-5-5-5---1-1-1---|
A|-----------------|-----------------|-----------------|-3-3-3---0-0-0---|
E|-0---------------|-0---------------|-0---------------|-----------------|
                                                        |p.m|   |p.m|

CHORUS

e|-----------------|-----------------|-----------------|-----------------|
B|-----------------|-----------------|-------------15--|-13--------------|
G|-10-----/14------|-12--------------|-13----------16--|-14--------------|
D|-10-----/14------|-12--9---10--12--|-14----14--------|-----10--12--14--|
A|-----------------|-----10--12--14--|-------11--------|-----------------|
E|-----------------|-----------------|-----------------|-----------------|
 |                 |                 |                 |                 |
e|-----------------|-----------------|-----------------|-----------------|
B|-----------------|-----------------|-----------------|-----------------|
G|-----------------|-----------------|-----------------|-----------------|
D|-----------------|-----------------|-----------------|-----------------|
A|-3-3333333-333333|-5-5555555-555555|-7-7777777-777777|-7-7777777-777777|
E|-1-1111111-111111|-3-3333333-333333|-4-4444444-444444|-5-5555555-555555|
(Guitar 2 is palm-muted)

e|-----------------|-----------------|-----------------|-----------------|
B|-----------------|-----------------|-----------------|---------------10|
G|/14----12----10--|-9-----7---------|-14----10----7---|-9---------9-10--|
D|/15----14----12--|-10----9---------|-13----12----9---|-10--9-10129-----|
A|-----------------|-----------------|-----------------|-----------------|
E|-----------------|-----------------|-----------------|-----------------|
 |                 |                 |                 |    |_____p.m___||
e|-----------------|-----------------|-----------------|-----------------|
B|-----------------|-----------------|-----------------|-----------------|
G|-----------------|-----------------|-----------------|-----------------|
D|-----------------|-----------------|-----------------|-5-----5-----5---|
A|-3-3333333-333333|-5-5555555-555555|-7-7777777-777777|-3-3-3-3-3-3-3---|
E|-1-1111111-111111|-3-3333333-333333|-4-4444444-444444|-----------------|
                                                          |p.m| |p.m|

e|-----------------|-----------------|-----------------|-----------------|
B|-----------------|-----------------|---------10--12--|-13--------------|
G|-10-----/14------|-12------10------|-13------7-------|-----------------|
D|-10-----/14------|-12------10------|-9---------------|-10--10--12--14--|
A|-----------------|-----------------|-----------------|-----------------|
E|-----------------|-----------------|-----------------|-----------------|
 |                 |                 |                 |                 |
e|-----------------|-----------------|-----------------|-----------------|
B|-----------------|-----------------|-----------------|-----------------|
G|-----------------|-----------------|-----------------|-----------------|
D|-----------------|-----------------|-----------------|-----------------|
A|-3-3333333-333333|-5-5555555-555555|-7-7777777-777777|-7-7777777-777777|
E|-1-1111111-111111|-3-3333333-333333|-4-4444444-444444|-5-5555555-555555|

e|-----------------|-----------------|
B|-----------------|-----------------|
G|/14--------------|/16------16------|
D|/15------15~~~~--|/17--------------|
A|-----------------|-----------------|
E|-----------------|-----------------|
 |                 |                 |
e|-----------------|-----------------|
B|-----------------|-----------------|
G|-----------------|-----------------|
D|-----------------|-----------------|
A|-3-3333333-333333|-5-5555555-555555|
E|-1-1111111-111111|-3-3333333-333333|


e|-----------------|
B|-----------------|
G|-----------------|
D|-----------------|
A|-----------------|
E|-----------------|
 |                 |  6 measures of rests
e|-----------------|
B|-----------------|
G|-----------------|
D|-----------------|
A|-----------------|
E|-----------------|


ENDING

e||-----------------|-----------------||
B||-----------------|-----------------||
G||-----------------|-----------------||
D||-----------------|-----------------||
A||-222222222-------|-222222222-2-3---||
E||-000000000-------|-000000000-0-1---||
 |||___pm____|      ||____pm_____|    || x4
e||-----------------|-----------------||
B||-----------------|-----------------||
G||-----------------|-----------------||
D||-----------------|-----------------||
A||-222222222-------|-222222222-2-3---||
E||-000000000-------|-000000000-0-1---||
   |___pm____|       |____pm_____|

e|-----------------|-----------------|-----------------|
B|-----------------|-----------------|-----------------|
G|-----------------|-----------------|-----------------|
D|-----------------|-----------------|-3-----3-----3---|
A|-----------------|-----------------|-1-2-2-1-2-2-1-2-|
E|-0-1-0-4-3-0-1-0-|-4-3-0-1---------|---0-0---0-0---0-|
 |                 |                 |                 |
e|-----------------|-----------------|-----------------|
B|-----------------|-----------------|-----------------|
G|-----------------|-----------------|-----------------|
D|-----------------|-----------------|-3-----3-----3---|
A|-----------------|-----------------|-1-2-2-1-2-2-1-2-|
E|-0-1-0-4-3-0-1-0-|-4-3-0-1---------|---0-0---0-0---0-|

This song is dedicated to Mr. Waugh
lol

| /  slide up
| \  slide down
| h  hammer-on
| p  pull-off
| ~  vibrato
| +  harmonic
| x  Mute note
| x/ or x\ pick scrape
===============================================================================
Tap to rate this tab
# A B C D E F G H I J K L M N O P Q R S T U V W X Y Z