Guitaretab - guitar tabs
Song name
# A B C D E F G H I J K L M N O P Q R S T U V W X Y Z
Home / M / Moist / Hate tab

Moist - Hate tab

Moist - Hate
Tabbed By: tza
EMail: timmy91199@yahoo.ca
Creature

< > = harmonics


Intro:

e-----<12>---------------7----------------------------------------
b-5--------<12>------------10---------------------0---------------
g-----------------------------------------------------------------
d-----------------------------11-11--12---------------------------
a-----------------------------------------------------------------
e-----------------------------------------------------------------

e-----<12>---------------------7----------------------------------
b----------<12>------------------10-----------------------------2-
g-9---------------------------------------------------------------
d--------------------------11-------11-11--12---------------------
a-----------------------------------------------------------------
e-----------------------------------------------------------------


Verses: Riff A

e--------------------------------------------------------
b-3p2-----2-------------------------------------------2--
g-----4------2---------2---------------------------2-----
d-------4--------4--------4p2---2------------------2----- x3
a-----------------------------5---5-4--2----2--0---------
e--------------------------------------------------------

e--------------------------------------------------------
b-3p2-----2----------------------------------------------
g-----4------2---------2---------------------------------
d-------4--------4--------4p2---2------------------0--2-- 
a-----------------------------5---5-4--2----2--0---------
e--------------------------------------------------------

Chorus:
[ Tab from: http://www.guitaretab.com/m/moist/126773.html ]
e--------------------------------------------------------
b--------------------------------------------------------
g-6-----6---4---------4--4---6-----6---4---------4--4----
d-7-----7---5---------5--5---7-----7---5---------5--5----
a-7-----7---5---------5--5---7-----7---5---------5--5----
e-5-----5---3---------3--3---5-----5---3---------3--3----

Guitar Solo:

e---------------------------------------------------
b-----0-------0---------------0----0----0-----------
g---------------------------------------------------
d-12----11-11---9----4---7-4----5----2----2-0------- x2
a---------------------------------------------4-2---
e---------------------------------------------------

e-------------------------------------------------------------
b-----0-----0------0-----0---------0-----------0--------------
g-------------------------------------------------------------
d-12----11----14-----14----16--12----14---11-----11--12-11-9--
a-------------------------------------------------------------
e-------------------------------------------------------------

e-------------------------------------------------------------
b-----0-----0------0-----0----------0---------0-0---------0-0-
g---------------------------------------------------------0-0-
d-12----11----14-----14----14--19-----19---19-----19-19-------
a-------------------------------------------------------------
e-------------------------------------------------------------

e-------------5----5-5-5--------------------5-----5-5---------
b-8----8-8--8-8b---8b8b8br--8-8-8----8----8-8b----8b8b--8-----
g-7b---7b7b-------------------7-7b---7br------------------7---
d-------------------------------------------------------------
a-------------------------------------------------------------
e-------------------------------------------------------------

e----------------5----5-5-5-5---------------------------------
b-8----8--8----8-8b---8b8b8b8br----------8-8-----8-8----8-8---
g-7b---7b-7br-------------------0-0--7b------7b------7b---7b--
d-------------------------------------------------------------
a-------------------------------------------------------------
e-------------------------------------------------------------


thatís all

trevor jones
timmy91199@yahoo.ca
Related for Hate tab