Guitaretab - guitar tabs
Song name
# A B C D E F G H I J K L M N O P Q R S T U V W X Y Z

Moist - Baby Skin Tattoo tab

Baby Skin Tattoo-Moist
Creature

E A D G B E


Intro:

Riff A: (elec. piano arr. for gtr.)

e-----------------0---------------------------------------
b-------------3-------------------------------------------
g----------/4---------3-2----------------2------2----0-2--
d------2--------------------0-----0------0------0---------
a---------------------------------------------------------
e-0-------------------------3---------3------3------------

e-----------------0---------------------------------------
b-------------3-------------------------------------------
g----------/4---------3-2p0--2p0-----------0-2---2---0----
d------2---------------------0-----0-------0-----0--------
a------------------------------------------------------2--
e-0--------------------------3-----3----3-----------------

Verse:

Fig. 1

e---------------------------------------------------------
b-5----5---5--5-------5---5---5-------8---8-8--8-8--8-8-8-
g-4----4---4--4-------4---4---4--7----7---7-7--8-8--8-8-8-
d-2----2------2--2----2-2---2----5----5--------5-5----5-5-
a-2----2------2--3----3-3---3----5-------------5----------
e-0-------------------------------------------------------

Chorus:

e-----------------------------------------------------------------
b----------------------------------------0---0-0-0-0---------0----
g-4-----4---4--x-x---4------4-4-4--------0-------------0----------
d-4-----4---4--x-x---4------4-4-4--------0-------------0----------
a-2-----2---2--x-x---2-------------2-------------------2--------2-
e-2-----2---2--x-x---2-------------3-------------------3--------3-

e-----------------------------------------------------------------
b----------------------------------------0---0-0-0-0------0--0----
g----------------------------------------0------------------------
d----------------------------------------0------------0--------0--
a-2-----2----2--------2----2-------2------------------2--------0--
e-0-----0----0--0-0---0----0--0----3------------------3-----------

Guitar Solo:

e-7----7---7-7---7-7-7------------------7-7---7-7-7--7------------
b-7----7---7-7---7-7-7--8-10--8--7--7---7-7---7-7-7--7--8--10-----
g-7----7---7-7---7-7-7--7--7--7--7--7---7-7---7-7-7--7--7---7-----
d-----------------------------------------------------------------
a-----------------------------------------------------------------
e-----------------------------------------------------------------
[ Tab from: http://www.guitaretab.com/m/moist/31624.html ]
e-----7-7-7---7-7---7----------------7-7-7---7-7---7-7-7----------
b-7---7-7-7---7-7---7-10--8--10--8---7-7-7---7-7---7-7-7---8---10-
g-7-------7---7-7---7--7--7---7--7---7-7-7---7-7---7-7-7---7----7-
d-----------------------------------------------------------------
a-----------------------------------------------------------------
e-----------------------------------------------------------------

e-7---7-7-7---7-7----7-7-7--------------7-7-7-7-7-7---7-7-7-------
b-7---7-7-7---7-7----7-7-7--8--10---8---7-7-7-7-7-7---7-7-7--8-10-
g-7---7-7-7---7-7----7-7-7--7---7---7---7-7-7-7-7-7---7-7-7--7--7-
d-----------------------------------------------------------------
a-----------------------------------------------------------------
e-----------------------------------------------------------------

e-----7-7-7-7-7-7-7--7-7-7----------7---7-7--7----7---7--7--7-7---
b-7---7-7-7-7-7-7-7--7-7-7--8--10---x---x-x--5----5---5--5--5-5---
g-7---7-7-7-7-7-7-7--7-7-7--7---7---5---5-5--5----5---5--5--5-5-0-
d-----------------------------------------------------------------
a-----------------------------------------------------------------
e-----------------------------------------------------------------

Outro Solo:

e-----------------------------------14--
b--------------------------------15-----
g-16--16-16-16--16-16---16-16-16--------
d--------------------------------------- x2
a---------------------------------------
e---------------------------------------

e---------------------------------14------------------------------
b-15---------------------------15---------------------------------
g----16--16---16-16---16-16-16-------16--16-16-16\14--14--12--11--
d-----------------------------------------------------------------
a-----------------------------------------------------------------
e-----------------------------------------------------------------

e-----------------------------------14--
b--------------------------------15-----
g-16--16-16-16--16-16---16-16-16--------
d--------------------------------------- x2
a---------------------------------------
e---------------------------------------

e-----------------------------------------------------------------
b-15----------------------------------------------------5---------
g----16--16---16-16--\14-14---14--12--12p11---11----9---4---------
d-------------------------------------------------------2---------
a-------------------------------------------------------2---------
e-------------------------------------------------------0---------


thatís all
Related for Baby Skin Tattoo tab