Guitaretab - guitar tabs
Song name
# A B C D E F G H I J K L M N O P Q R S T U V W X Y Z

Moist - Theme From Cola tab

Moist - Theme From Cola
Tabbed By: tza
EMail: timmy91199@yahoo.ca
Creature


< > = harmonics


Intro:

Fig. 1

e-----------------------------------------
b------------------0-------------------0--
g---------<5>------0----------<5>------0--
d--------------<5>-----------------<5>---- x4
a-2--2--2-------------2--2--2-------------
e-0--0--0-------------0--0--0-------------

Verses: 

Riff A:

e-----------------------------------------
b-----------------------------------------
g----------3-------------------2----------
d-------4-------------------5--------5---- x4
a----4-------------------2--------------2-
e-2---------------2---3-------------------

Interlude:

gtr. 2

e---------------------------------------------
b-0--0--0--0--0--0--0--0--0--0--0--0--0--0--0-
g---------------------------------------------
d--------------------------------------------- x2
a---------------------------------------------
e---------------------------------------------

gtr. 1

e----------------------------------------------
b----------------------------------------------
g----------------------------------------------
d-4----4--------0--0--0--4----4--------0--0--0- x2
a-2----2--5-----0--0--0--2----2--5-----0--0--0-
e---------3----------------------3-------------

Chorus:

e-----------------------------------------------------------------
b-----------------------------------------------------------------
g----------------------------------------------------5--5--5---5\4
d-4---4-----0-0-0--4---4-----0-0-0--4---4-----0-0-0--5--5--5---5\4
a-2---2-5---0-0-0--2---2-5---0-0-0--2---2-5---0-0-0--3--3--3---3\2
e-------3----------------3----------------3-----------------------

e-----------------------------------------------------------------
b-----------------------------------------------------------------
g-----------------------------------------------------------------
d-4---4-----0-0-0--4---4-----0-0-0--4---4-----0-0-0----2-----4----
a-2---2-5---0-0-0--2---2-5---0-0-0--2---2-5---0-0-0--4---4-5---5--
e-------3----------------3----------------3-----------------------

Solo:
[ Tab from: http://www.guitaretab.com/m/moist/41387.html ]
e-----------------------------------------------------------------
b-----------------------------------------------------------------
g-------3--2------0---------3--2----0---2---0---------------------
d-2------------------2--------------------------<2>-----------2/--
a-----------------------------------------------------------------
e-----------------------------------------------------------------

w/ pm
e-----------------------------------------------------------------
b-----------------------------------------------------------------
g-----------------------------------------------------------------
d-14-14-14-14-14--14-14--14-14-14-14-14-14-14-14-14-14-14-14-14---
a-----------------------------------------------------------------
e-----------------------------------------------------------------

w/ wah-wah

e-----------------------------------------------------------------
b-----------------------------------------------------------------
g---------------0--2--2b~~~-2b~~~-2--0--2p0-----0-------0-2p0-----
d-14-14-14-14-------------------------------2p0----2----------2p0-
a-----------------------------------------------------------------
e-----------------------------------------------------------------

e--------------------0--0--3b~~~-3b---------12--------------------
b-3p0---------3b~~~~-0--0------------5/12-------15~~~~~~~~~~~-----
g-----2p0---------------------------------------------------------
d---------2p0-----------------------------------------------------
a-----------------------------------------------------------------
e-----------------------------------------------------------------

e-----------------------------------------------------------------
b-15---15---15-----15---15----------------------------------------
g-14b--14b--14b----14b--14b----12---------------------------------
d-----------------------------------14p12----12-------------------
a-----------------------------------------14-----14p12-14-12------
e------------------------------------------------------------15-12

Outro:

e-----------------------------------------------------------------
b-----------------------------------------------------------------
g-5---5-5-5-5-5-5-5-5-5-5-5-5-5-5-5-5-5-5-5-5-5-5-5-5-5-5-5-5-4---
d-5---5-5-5-5-5-5-5-5-5-5-5-5-5-5-5-5-5-5-5-5-5-5-5-5-5-5-5-5-4---
a-3---3-3-3-3-3-3-3-3-3-3-3-3-3-3-3-3-3-3-3-3-3-3-3-3-3-3-3-3-2---
e---------------------------------------------------------------0-


thatís all

trevor jones
timmy91199@yahoo.ca
Related for Theme From Cola tab