Mojo Fury - Deep Fish Tank Factory Settings tab

MOJO FURY - DEEP FISH TANK (FACTORY SETTINGS)

Drop D tuning

http://www.facebook.com/mojofuryband
http://www.myspace.com/mojofuryband
http://mojofury.bandcamp.com for FREE DOWNLOAD 

Debut album out March 2011


INTRO
	
	Guitar 1 - 
e|---------------------------|
b|---------------------------|
g|---7-7-7-7-7-7-7--7--7--7--|
d|---------------------------|
a|---5-5-5-5-5-5-5--5--5--5--|
D|-0-------------------------|

e|---------------------------------------------------------------------------------------------|
b|---------------------------------------------------------------------------------------------|
g|---7--7-7-7-7-7--7--7--7----7--7-7-7-7-7-7-7-7-7-7-7----9---9--9--9--9--9--9--9--9--9--9--12-|
d|---------------------------------------------------------------------------------------------|
a|---5--5-5-5-5-5--5--5--5----8--8-8-8-8-8-8-8-8-8-8-7----10--10-10-10-10-10-10-10-10-10-10-10-|
D|-0------------------------0---------------------------0--------------------------------------| x2
                                                   Harm.
e|---------------------------------------------------------------|
b|-------------------------------------------------(7)~~~~~~~~~~-|
g|---14-14-14-14-41-14-14-14-14-14-14-14-14-14-14--(7)~~~~~~~~~~-|
d|---------------------------------------------------------------|
a|---12-12-12-12-12-12-12-12-12-12-12-12-12-12-12----------------|
D|-0-------------------------------------------------------------|

e|-----------------------------------------------------------------------|
b|-----------------------------------------------------------------------|
g|-----------------------------------------------------------------------|
d|-----------------------------------------------------------------------|
a|---5--5-5-5-5-5-3------5--5-5-5-5-5-3------5--5-5-5-5-5-3--------------|
D|-0----------------5-0-----------------4-0-----------------3-0--3-3-3-0-| 

e|------------------------------------------------------------------------------|
b|------------------------------------------------------------------------------|
g|------------------------------------------------------------------------------|
d|------------------------------------------------------------------------------|
a|-5--5-5-5-5-5-3------5--5-5-5-5-5-3------5--5-5-5-5-5-3-----------------------|
D|----------------5-0-----------------4-0-----------------3-0--3-3-3-0--3-3-3-0-|

e|------------------------------------------------------------------------------|
b|------------------------------------------------------------------------------|
g|------------------------------------------------------------------------------|
d|------------------------------------------------------------------------------|
a|-5--5-5-5-5-5-3------5--5-5-5-5-5-3------5--5-5-5-5-5-3-----------------------|
D|----------------5-0-----------------4-0-----------------3-0--3-3-3-0--3-3-3-3-|

e|------------------------------------------------------------------------------|
b|-----------------11b13~~~~~~~~~~~12b14~~~~~~~~~~~14b16~~~14b16~~~14b16~~~0~~~~|
g|-----------------9~~~~~~~~~~~~~~~10~~~~~~~~~~~~~~12~~~~~~12~~~~~~12~~~~~~0~~~~|
d|-------------------------------------------------------------------------0~~~~|
a|------------------------------------------------------------------------------|
D|-0--0--0-0--0--0-0--0--0-0--0--0-0--0--0-0--0--0------------------------------|

e|--------------------------(7)~~~~~~~~~~~~~~~~~~|
b|-(7)~~~~~~~~~~~~~~~~--(7)~~~~~~~~~~~~~~~~~~~~~~|
g|-(7)~~~~~~~~~~~~~~~~-(7)~~~~~~~~~~~~~~~~~~~~~~~|
d|-(7)~~~~~~~~~~~~~~~~(7)~~~~~~~~~~~~~~~~~~~~~~~~|
a|-----------------------------------------------|
D|-----------------------------------------------|


VERSE

Guitar 1

e|-------------------------------------------------------------------|
b|-------------------------------------------------------------------|
g|-16-16-16-16--------------------------------16-16-16-16~~~~~~~~~~~~|
d|-15-15-15-15--------------------------------15-15-15-15~~~~~~~~~~~~|
a|-14-14-14-14-------------0h2-0h2~~~~~~~~~~~~14-14-14-14~~~~~~~~~~~~|
D|-------------------------------------------------------------------|
  "Believe it or not...  She ain't a girl... Scissors did cut..."

e|-------------------------------------------------------------------|
b|---------------------------------------(7)~~~~~~~~~~~~~~~~~~~~~~~~~|
g|---------------------------------------(7)~~~~~~~~~~~~~~~~~~~~~~~~~|
d|---------------------------------------(7)~~~~~~~~~~~~~~~~~~~~~~~~~|
a|-----2--0--2--5--2--0----------------------------------------------|
D|-----------------------3~~~~~~~4~~~~5~~----------------------------|
  "The bits that were mutt they did cut...they cut..."

e|-------------------------------------------------------------------|
b|-------------------------------------------------------------------|
g|-16-16-16-16--------------------------------16-16-16-16~~~~~~~~~~~~|
d|-15-15-15-15--------------------------------15-15-15-15~~~~~~~~~~~~|
a|-14-14-14-14-------------0-2-0-2~~~~~~~~~~~~14-14-14-14~~~~~~~~~~~~|
D|-------------------------------------------------------------------|
  "Payed for the change... Not goin back no no no...   Problems persist..."

e|----------------------------------------|
b|----------------------------------------|
g|----------------------------------------|
d|----------------------------------------|
a|-----2--0--2--5--2--0-------------------|
D|-----------------------3~~~~~~~4~~~~5~~-|
  "With hair on the lips they persist..."


PRE CHORUS

e|---------------------------------------------------|
b|---------------------------------------------------|
g|---------------------------------------------------|
d|---------------------------------------------------|
a|-14--------15------17-------14---------------------|
D|------15------16------18---------15---12---6---3---|

e|---------------------------------------------------|
b|---------------------------------------------------|
g|----------------------------16~~~~-----------------|
d|------------------------------------3--3--0--3-----|
a|-14--------15------17-------14~~~~--3--3--0--3-----|
D|------15------16------18------------3--3--0--3-----|


CHORUS

e|---------------------------------------------------------------------------------|
b|---------------------------------------------------------------------------------|
g|---4--4--4------------5-------7-------4--4--4----------------5-------7-----------|
d|---4--4--4--3--3--3---3--4----7--6----4--4--4--3--3--0--3----3--4----7--6--6--6--|
a|---2--2--2--3--3--3---3--4----5--6----2--2--2--3--3--0--3----3--4----5--6--6--6--|
D|------------3--3--3------4-------6-------------3--3--0--3-------4-------6--6--6--|
 "It's better to wake up and have the pieces instead of someone else's to complicate matters"

e|---------------------------------------------------------------------------------|
b|---------------------------------------------------------------------------------|
g|---4--4--4------------5-------7-------4--4--4----------------5-------7-----------|
d|---4--4--4--3--3--3---3--4----7--6----4--4--4--3--3--0--3----3--4----7--6--6--6--|
a|---2--2--2--3--3--3---3--4----5--6----2--2--2--3--3--0--3----3--4----5--6--6--6--|
D|------------3--3--3------4-------6-------------3--3--0--3-------4-------6--6--6--|
 "It's better to wake up and have the pieces instead of someone else's to complicate matters"


e|-----------------------------------------------------------------|
b|-----------------------------------------------------------------|
g|---4--4--4-------------------------------------------------------|
d|---4--4--4--3--3--0----------------------------------------------|
a|---2--2--2--3--3--0----------------------------------------------|
D|------------3--3--0--3~~~~~~~~~~~~~~~~~~3--3b4r3~~~~~~~~~~~~~~~~~|
 "It's better it's better...."

e|------------------------------------------------------------------------|
b|------------------------------------------------------------------------|
g|--------------------------------------------------------------4--4~~~~~~|
d|-----------------------------------------------------------------3~~~~~~|
a|--2----2----2----2--2-----------2-----------2----2----2----2--2--2~~~~~~|
D|-----------------------3--0--3-----3--0--3------------------------------|


VERSE

  P.M.
e|-----------------------------------------------------------------|
b|-----------------------------------------------------------------|
g|-----------------------------------------------------------------|
d|-9-9-9-9-9-9-9-9-9-9-9-9-9-9-9-9-9-9-9-9-9-9-9-9-9-9-9-9-9-9-9-9-|
a|-----------------------------------------------------------------|
D|-9-9-9-9-9-9-9-9-9-9-9-9-9-9-9-9-9-9-9-9-9-9-9-9-9-9-9-9-9-9-9-9-|
  "Unlucky there mister... 

  P.M.
e|-----------------------------------------------------------------|
b|-----------------------------------------------------------------|
g|-----------------------------------------------------------------|
d|-9-9-9-9-9-9-9-9-9-9-9-9-9-9-9-9-9-9-9-9-9-9-9-9-9-9-9-9-9-9-9-9-|
a|-----------------------------------------------------------------|
D|-9-9-9-9-9-9-9-9-9-9-9-9-9-9-9-9-9-9-9-9-9-9-9-9-9-9-9-9-9-9-9-9-|
  ...You'll never be your brothers sister.."

  P.M.
e|-----------------------------------------------------------------|
b|-----------------------------------------------------------------|
g|-----------------------------------------------------------------|
d|-9-9-9-9-9-9-9-9-9-9-9-9-9-9-9-9-9-9-9-9-9-9-9-9-9-9-9-9-9-9-9-9-|
a|-----------------------------------------------------------------|
D|-6-6-6-6-6-6-6-6-6-6-6-6-6-6-6-6-6-6-6-6-6-6-6-6-6-6-6-6-6-6-6-6-|
  "Dressing up was OK....

  P.M.
e|-----------------------------------------------------------------|
b|-----------------------------------------------------------------|
g|-----------------------------------------------------------------|
d|-9-9-9-9-9-9-9-9-9-9-9-9-9-9-9-9-9-9-9-9-9-9-9-9-9-9-9-9-9-9-9-9-|
a|-----------------------------------------------------------------|
D|-5-5-5-5-5-5-5-5-5-5-5-5-5-5-5-5-5-5-5-5-5-5-5-5-5-5-5-5-5-5-5-5-|
  ...But the scissors cut the news that day"


  P.M.
e|-----------------------------------------------------------------|
b|-----------------------------------------------------------------|
g|-----------------------------------------------------------------|
d|-9-9-9-9-9-9-9-9-9-9-9-9-9-9-9-9-9-9-9-9-9-9-9-9-9-9-9-9-9-9-9-9-|
a|-----------------------------------------------------------------|
D|-9-9-9-9-9-9-9-9-9-9-9-9-9-9-9-9-9-9-9-9-9-9-9-9-9-9-9-9-9-9-9-9-|
  "Unlucky there mister... 

  P.M.
e|-----------------------------------------------------------------|
b|-----------------------------------------------------------------|
g|-----------------------------------------------------------------|
d|-9-9-9-9-9-9-9-9-9-9-9-9-9-9-9-9-9-9-9-9-9-9-9-9-9-9-9-9-9-9-9-9-|
a|-----------------------------------------------------------------|
D|-9-9-9-9-9-9-9-9-9-9-9-9-9-9-9-9-9-9-9-9-9-9-9-9-9-9-9-9-9-9-9-9-|
  ...You'll never be your brothers sister.."

  P.M.
e|-----------------------------------------------------------------|
b|-----------------------------------------------------------------|
g|-----------------------------------------------------------------|
d|-9-9-9-9-9-9-9-9-9-9-9-9-9-9-9-9-9-9-9-9-9-9-9-9-9-9-9-9-9-9-9-9-|
a|-----------------------------------------------------------------|
D|-6-6-6-6-6-6-6-6-6-6-6-6-6-6-6-6-6-6-6-6-6-6-6-6-6-6-6-6-6-6-6-6-|
  "Dressing up was OK....

  P.M.
e|-----------------------------------------------------------------|
b|-----------------------------------------------------------------|
g|-----------------------------------------------------------------|
d|-9-9-9-9-9-9-9-9-9-9-9-9-9-9-9-9-9-9-9-9-9-9-9-9-9-9-9-9-9-9-9-9-|
a|-----------------------------------------------------------------|
D|-5-5-5-5-5-5-5-5-5-5-5-5-5-5-5-5-5-5-5-5-5-5-5-5-5-5-5-5-5-5-5-5-|
  ...But the scissors cut the news that day"


BRIDGE


e|------------------------------------------------------------------------|
b|------------------------------------------------------------------------|
g|---------7---------------7------------------------------------16--14~~~~|
d|-9--7--9----9--7-9--7--9----9--7----------------------------------------|
a|-----------------------------------2--0--2--5--2--0--2--0--2--14--14~~~~|
D|------------------------------------------------------------------------|


CHORUS

e|---------------------------------------------------------------------------------|
b|---------------------------------------------------------------------------------|
g|---4--4--4------------5-------7-------4--4--4----------------5-------7-----------|
d|---4--4--4--3--3--3---3--4----7--6----4--4--4--3--3--0--3----3--4----7--6--6--6--|
a|---2--2--2--3--3--3---3--4----5--6----2--2--2--3--3--0--3----3--4----5--6--6--6--|
D|------------3--3--3------4-------6-------------3--3--0--3-------4-------6--6--6--|
 "It's better to wake up and have the pieces instead of someone else's to complicate matters"

e|---------------------------------------------------------------------------------|
b|---------------------------------------------------------------------------------|
g|---4--4--4------------5-------7-------4--4--4----------------5-------7-----------|
d|---4--4--4--3--3--3---3--4----7--6----4--4--4--3--3--0--3----3--4----7--6--6--6--|
a|---2--2--2--3--3--3---3--4----5--6----2--2--2--3--3--0--3----3--4----5--6--6--6--|
D|------------3--3--3------4-------6-------------3--3--0--3-------4-------6--6--6--|
 "It's better to wake up and have the pieces instead of someone else's to complicate matters"

e|---------------------------------------------------------------------------------|
b|---------------------------------------------------------------------------------|
g|---4--4--4------------5-------7-------4--4--4----------------5-------7-----------|
d|---4--4--4--3--3--3---3--4----7--6----4--4--4--3--3--0--3----3--4----7--6--6--6--|
a|---2--2--2--3--3--3---3--4----5--6----2--2--2--3--3--0--3----3--4----5--6--6--6--|
D|------------3--3--3------4-------6-------------3--3--0--3-------4-------6--6--6--|
 "It's better to wake up and have the pieces instead of someone else's to complicate matters"

e|--------------------------------------------------------------|
b|--------------------------------------------------------------|
g|---4--4--4----------------------------------------------------|
d|---4--4--4--3--0-----------------------------------10b11~~~~~~|
a|---2--2--2--3--0-----------------8~~~~~~~~9~~~~~~~~9~~~~~~~~~~|
D|------------3--0--3~~~~~~4~~~~~~~|
 "It's better it's better...."


OUTRO

e|---------------------------------------------------------------------------------------------|
b|---------------------------------------------------------------------------------------------|
g|-----------------------------------------------------------------------------------------10--|
d|-----------------------------------------------------------------------------------------9---|
a|---------------5---------------------5---------------------5-----------------------------8---|
D|--0----0----0-----5--0--0----0----0-----4--0--0----0----0-----3--0--0----0--0-0-0--3--0------|

e|---------------------------------------------------------------------------------------------|
b|---------------------------------------------------------------------------------------------|
g|----------------------------------------------------------------------------10---------------|
d|----------------------------------------------------------------------------9----------------|
a|---------------5---------------------5---------------------5----------------8-(x15)----------|
D|--0----0----0-----5--0--0----0----0-----4--0--0----0----0-----3--0--0----0-------------------|

e|--------------------------------------------------------------------------------------7------|
b|--------------------------------------------------------------------------------------5------|
g|--------------------------------------------------------------------------------------5------|
d|--------------------------------------------------------------------0--0--0-----------0------|
a|---------------5---------------------5---------------------5--------0--0--0-----------0------|
D|--0----0----0-----5--0--0----0----0-----4--0--0----0----0-----3--0--0--0--0-----------0------|




ORDER
------------
Intro
Verse
Pre Chorus
Chorus
Verse
Pre Chorus
Chorus
Bridge
Chorus (x1.5)
Outro


LYRICS
------------

Deep Fish Tank ( Factory Settings )

Believe it or not she ain't a girl
Scissors did cut
the bits that were mutt they did cut 
They cut
Payed for the change not goin back no no no
problems persist with hair on the lips they persist
They persist

It's better to wake up and have the pieces
instead of someone else's to complicate matters

Unlucky there mister you'll never be 
your brother's sister
Dressing up was ok 
but the scissors cut the news that day

It's better to wake up and have the pieces
instead of someone else's to complicate matters
Tap to rate this tab
 
# A B C D E F G H I J K L M N O P Q R S T U V W X Y Z