Song name
# A B C D E F G H I J K L M N O P Q R S T U V W X Y Z

Mojo The Helper Monkey - Another Drinkin Song tab

Group:
Mojo The Helper Monkey
Song:
Another Drinkin' Song

Intro:
E7#9 G   A   E
0----3---5---0--|
7----5---7---2--|
6----5---7---2--|
7----X---X---X--|
X----X---X---X--|
X----X---X---X--|

Chorus:

E    G   A   E7#9
0----3---5---0--|
2----5---7---7--|
2----5---7---6--|
X----X---X---7--|
X----X---X---X--|
X----X---X---X--|

Solo:
e---------------------------------------------|
b-------------5-5----5-5----5-5-(5)--7b-7b-7--|b
g-------------5-5----5-5----5-5-(5)--7b-7b-7--|b
d--------5-7--7--(7)7---(7)7------------------|
a---5-6-7-------------------------------------|
e5-8------------------------------------------|

e--------------------------------------------|
b5-5----5-5----5-5-(5)--7b-7b-7b-------------|
g5-5----5-5----5-5-(5)--7b-7b-7b-------------|
d---(7)7---(7)7------------------------------|
a--------------------------------------------|
e--------------------------------------------|

e8-5-----------------------------------------|
b---8-5--8b-8b-8b--5---8-5-------------------|
g--------------------------7-5---------------|
d------------------------------7-5-----------|
a----------------------------------7-6-5-----|
e----------------------------------------8-5-|

e---------------------|
b-------------5-5-----|
g-------------5-5-----|
d--------5-7--7-------|(7)7}  Let Ring
a---5-6-7-------------|
e5-8------------------|

Verse:

I drink too much
and then pass out on the floor
I drink too much
and now I cant find the bathroom door

Chorus:
yeah
I've been drinkin too much all day long
Now I'm singin another Drinkin' Song
yeah
I've been drinkin too much all day long
Now I'm singin another Drinkin' Song

Verse:
I drink too much
and throw up in the toilet
I drink Too much and now-
Fhagetaboutit

Chorus

Solo

Verse1

Chorus 2X
Tap to rate this tab
# A B C D E F G H I J K L M N O P Q R S T U V W X Y Z