Song name
# A B C D E F G H I J K L M N O P Q R S T U V W X Y Z

Mojofly - Mata tab

Artist: Mojofly
Tuning: eBGDAE
Transcribe bY: Rowanne SIpriaso(bluestriper_12@yahoo.com)
School: Letran Calamba(h.s p lang)

Note: Sundan nyu lang pu ung track tpos maku2ha nyu na..pakinggan nyu
lang ng maigi.. para auz! astig 2..hnd ku lng alam kung acoustic ung napa-
kinggan ku..heheh bhala na kau kung anu dun sa dalwang un ung my lead..
kung anu ung my lead.. e2 un..heheh!

**********Hi nga pla sa mga kabanda ko from letran, c mary,kyla,vinel,meysi
 gel..hahaha for your info all girlz kmi hihih astig noh? enjoy nyu na ng 2ng tab na 2.. 
tym ko pero xure aku d2!!******************

**Verse**
Kamusta na...........     anjan ka pa ba.....

        G                       D

E------------3----------------------3---------|
B--------3-----3---3------------3-----3---3---|
G------0---0-----0------------2---2-----2-----|
D---------------------------------------------|
A---------------------------------------------|
E---------------------------------------------|

         Am                   C

E----------0--------------------0-----------|
B-------1----1---1-----------1----1---1-----|
G-----2---2----2-----------0---0----0-------|
D-------------------------------------------|
A-------------------------------------------|
E-------------------------------------------|


Wala na yatang ibang magagawa kundi tumawa


        G                       D

E------------3----------------------3---------|
B--------3-----3---3------------3-----3---3---|
G------0---0-----0------------2---2-----2-----|
D---------------------------------------------|
A---------------------------------------------|
E---------------------------------------------|

         Am                   C

E----------0--------------------0-----------|
B-------1----1---1-----------1----1---1-----|
G-----2---2----2-----------0---0----0-------|
D-------------------------------------------|
A-------------------------------------------|
E-------------------------------------------|


Nanjan pa ba mga alalala


            G                      D

E------------3----------------------3---------|
B--------3-----3---3------------3-----3---3---|
G------0---0-----0------------2---2-----2-----|
D---------------------------------------------|
A---------------------------------------------|
E---------------------------------------------|

         Am                   C

E----------0--------------------0-----------|
B-------1----1---1-----------1----1---1-----|
G-----2---2----2-----------0---0----0-------|
D-------------------------------------------|
A-------------------------------------------|
E-------------------------------------------|


Ang tanging bagay na naiwan sa ating dalawa
            G                      D

E------------3----------------------3---------|
B--------3-----3---3------------3-----3---3---|
G------0---0-----0------------2---2-----2-----|
D---------------------------------------------|
A---------------------------------------------|
E---------------------------------------------|

         Am                   C

E----------0--------------------0-----------|
B-------1----1---1-----------1----1---1-----|
G-----2---2----2-----------0---0----0-------|
D-------------------------------------------|
A-------------------------------------------|
E-------------------------------------------|

**Refrain**
Wag ng paikutin ang isa't isa
Lahat ng bagay ay malinaw na
Di na rin kailangan pagpilitan pa

Guitar 2: ***Pataas pu lahat strum d2 sa guitar 1***

         Em                   C

E--0--------------------------0------------|
B--0--------------------------1------------|
G--0--------------------------0------------|
D--2--------------------------2------------|
A--2--------------------------3------------|
E--0---------------------------------------|


      G                    D

E------3-------------------2---------------|
B------3-------------------3---------------|
G------0-------------------2---------------|
D------0-------------------0---------------|
A------2-----------------------------------|
E------3-----------------------------------|


Guitar 2:

         Em                   C

E----------0----------------------0---------|
B-------0----0---0-------------1----1---1---|
G-----0---0----0-------------0---0----0-----|
D-------------------------------------------|
A-------------------------------------------|
E-------------------------------------------|


            G                      D

E------------3----------------------3---------|
B--------3-----3---3------------3-----3---3---|
G------0---0-----0------------2---2-----2-----|
D---------------------------------------------|
A---------------------------------------------|
E---------------------------------------------|

Guitar 1 and 2:
*****Pataas parin ung strum once lng ung sa em pti c tas sa d marmi na****

Di mo na kinakailangan pang magsalita

   Em             C               D

E--0--------------0---------------22223-----------|
B--0--------------1---------------33333-----------|
G--0--------------0---------------22222-----------|
D--2--------------2---------------00000-----------|
A--2--------------3-------------------------------|
E--0--------------0-------------------------------|


Nakita ko na lahat ditto pinahihiwatig ng mata mo
Salamat na lamang sa iyo

****Guitar 1****
        G                       D

E------------3----------------------3---------|
B--------3-----3---3------------3-----3---3---|
G------0---0-----0------------2---2-----2-----|
D---------------------------------------------|
A---------------------------------------------|
E---------------------------------------------|

         Am                   C

E----------0--------------------0-----------|
B-------1----1---1-----------1----1---1-----|
G-----2---2----2-----------0---0----0-------|
D-------------------------------------------|
A-------------------------------------------|
E-------------------------------------------|

*****Guitar 2*****
Strum lang toh..2loy 2loy..

      G                    D

E------3-------------------2---------------|
B------3-------------------3---------------|
G------0-------------------2---------------|
D------0-------------------0---------------|
A------2-----------------------------------|
E------3-----------------------------------|

         Em                   C

E-------0---------------------0------------|
B-------1---------------------1------------|
G-------2---------------------0------------|
D-------2---------------------2------------|
A-------0---------------------3------------|
E------------------------------------------|

Solo: [may violin]


E---------------------------7-7-5-5h7--7s8-7-------------------|
B-----8-8-8s10-8-7---------------------------8--8s10-7-8-------|
G------------------7--7h9-7~~----------------------------------|
D--------------------------------------------------------------|
A--------------------------------------------------------------|
E--------------------------------------------------------------|


E-----------------------------------------9--10~~~~------------|
B-----8-8-8s10-8-7------7-8-8s10---10s12-----------------------|
G-------------------7-9----------------------------------------|
D--------------------------------------------------------------|
A--------------------------------------------------------------|
E--------------------------------------------------------------|


****Repeat Verse*****

****Repeat Refrain*****


Nakita ko na lahat ditto pinahihiwatig ng mata mo
Salamat na lamang sa iyo

****Guitar 1****
        G                       D

E------------3----------------------3---------|
B--------3-----3---3------------3-----3---3---|
G------0---0-----0------------2---2-----2-----|
D---------------------------------------------|
A---------------------------------------------|
E---------------------------------------------|

         Am                   C          ** ung isa last na strum**

E----------0--------------------0----------0-|
B-------1----1---1-----------1----1---1----1-|
G-----2---2----2-----------0---0----0------0-|
D------------------------------------------2-|
A------------------------------------------3-|
E--------------------------------------------|

*****Guitar 2*****
Strum lang toh..2loy 2loy..

      G                    D

E------3-------------------2---------------|
B------3-------------------3---------------|
G------0-------------------2---------------|
D------0-------------------0---------------|
A------2-----------------------------------|
E------3-----------------------------------|

         Em                   C        **ung isa last na strum**

E-------0---------------------0-------0----|
B-------1---------------------1-------1----|
G-------2---------------------0-------0----|
D-------2---------------------2-------2----|
A-------0---------------------3-------3----|
E------------------------------------------|

Enjoy..
Tap to rate this tab
 
# A B C D E F G H I J K L M N O P Q R S T U V W X Y Z