Guitaretab - guitar tabs
Song name
# A B C D E F G H I J K L M N O P Q R S T U V W X Y Z

Mojofly - Close To The End tab

Song Title: CLose to the end
Artist: Mojofly
Tuning: eBGDAE
Transcribe bY: Rowanne SIpriaso(bluestriper_12@yahoo.com)
School: Letran Calamba(h.s p lang)

Note: Pakinggan nyu ung track tpus sbyan nyu para mdali..
     minadali ku na lng to eh.. para msaya! heheh natapos ko agad
     sure nmn aku d2 mga 98%..2nd p lng 2 na ngawan ku tab..

***Paki rate nga pla!*** salamat!
Intro: 

Guitar 1:

e-------3-3---2p0-----3--------3-3----2p0----3--------|
B-------------------3----------------------3----------|<<3times toh
G-----------------------------------------------------|
D-----------------------------------------------------|
A-----------------------------------------------------|  
E-----------------------------------------------------|

Guitar 2: *** Strum nyu ung G- C9 paulit-ulit lng..pro mas mganda kung 
Ippluck..3 times din****

Verse:

 
              G                       Am
e-----------------------------------------------------|
B--------3---------3-------------3-----------3--------|
G------0---0-----0---0---------0---0-------0---0------|
D-----------------------------------------------------|
A----------------------------0-----------0------------|  
E----3---------3--------------------------------------|


              C
e-----------------------------------------------------|
B--------3-----------3---------3---------3------------|
G------0---0-------0---0-----0---0-----0---0----------|
D-----------------------------------------------------| 
A----3-----------3---------3---------3----------------|  
E-----------------------------------------------------|

*** 4 times nyu ga2win ung sa verse ***

Refrain:

        Em                   G              C
e-------------0----------------3----------------------|
B-------0---3---3----------3-----3----------3---------| **ung C dto 3
G-----0---0--------------0---0-----0------0---3-------|
D-----------------------------------------------------|    Times**
A---------------------------------------3-------------|  
E---0------------------3------------------------------|




          Am                     Em
e-------------0---------------------3-----------------|
B-------1---3---3---------------0---------------------|
G-----0---0-------------------0---0-------------------|
D-----------------------------------------------------|
A---0-------------------------------------------------|  
E---------------------------0-------------------------|


              C                         D
e---------------------------------------3---3--------|
B--------3-----------3--------------3-----3----------|
G------0---0-------0---0----------2---2--------------|
D-------------------------------0--------------------| 
A----3-----------3-----------------------------------|  
E----------------------------------------------------|

Chorus:
Guitar 1

e----------------------------------------------------|
B----5----7----8-----------5--7--8-------------------|
G----------------------------------------------------|
D----------------------------------------------------|
A----------------------------------------------------|  
E----------------------------------------------------|

   ^^^^^^^^^^^
***My pnagkaiba po 2 ung isa mabilis ung isa hnd***

Guitar 2:
              G                       Am
e-----------------------------------------------------|
B--------3---------3-------------3-----------3--------|
G------0---0-----0---0---------0---0-------0---0------|
D-----------------------------------------------------|
A----------------------------0-----------0------------|  
E----3---------3--------------------------------------|


              C
e-----------------------------------------------------|
B--------3-----------3---------3---------3------------|
G------0---0-------0---0-----0---0-----0---0----------|
D-----------------------------------------------------| 
A----3-----------3---------3---------3----------------|  
E-----------------------------------------------------|

    ^^^^^^^^^^^^^
***3 times lang 2***
[ Tab from: http://www.guitaretab.com/m/mojofly/62925.html ]
         Em               D                 C
e---------0----------------2---------------0--------3--|
B------0----0----------3-----3----------3----3---3--3--|
G----0---0---0-------2---2-----2------0---0----0-------|
D------------------0-----------------------------------|
A------------------------------------3-----------------|  
E--0---------------------------------------------------|

**Lead Part**
e------------------------------3-----------------3----|
B-----8-10-10s12-12-12----5--7-7--3----5---7-7-7--3--|
G---7-------------------------------------------------|
D-----------------------------------------------------|
A-----------------------------------------------------|  
E-----------------------------------------------------|


e--------------3--------------------------------------|
B---5--7-73h5-----8--1010s12-12-12--13-13-13---15~--|
G-----------------------------------------------------|
D-----------------------------------------------------|
A-----------------------------------------------------|  
E-----------------------------------------------------|

e----------------------------12--1415~~~~------------|
B---10~~-------810-10s12-----------------------------|
G------------7----------------------------------------|
D-----------------------------------------------------|
A-----------------------------------------------------|  
E-----------------------------------------------------|

***Repeat verse***
guitar 1:
e---1210h12------------------------------------------|
B-----------12-10-9-----------------------------------|
G-------------------12-10-9---------------------------|
D----------------------------12--1012~~~-------------|
A-----------------------------------------------------|  
E-----------------------------------------------------|
**Repeat Refrain***

****Repeat Chorus****
Guitar 1:
e----------5s7--3--------5s7--3-----------------------|
B---5-7-8---------5-7-8-------------------------------|
G-----------------------------------------------------|
D-----------------------------------------------------|
A-----------------------------------------------------|  
E-----------------------------------------------------|

  ^^^^^^^^^^
***hanggang mtapos ung chorus***

***Bridge***

e--10~-------------------------------------------------------|
B-----10~--12-12-10-10-12-12-10-10-12-12-10-10-12-12-10-10---|
G------------------------------------------------------------|
D------------------------------------------------------------|
A------------------------------------------------------------|  
E------------------------------------------------------------|

e--10~--------------------------------------|
B-----10~--1210~~~~~~~~--------------------|
G-------------------------------------------|
D-------------------------------------------|
A-------------------------------------------|  
E-------------------------------------------|

****Repeat Chorus****
Guitar 1:
e----------5s7--3--------5s7--3-----------------------|
B---5-7-8---------5-7-8-------------------------------|
G-----------------------------------------------------|
D-----------------------------------------------------|
A-----------------------------------------------------|  
E-----------------------------------------------------|

   ^^^^^^^^^^^^^^^
***15 times toh****

**Chorus parin**


Guitar 1:
e----------5s7--3--------5s7--3---------5s7--3---5s7--3--5s7--3--|
B---5-7-8---------5-7-8---------5-7-8----------------------------|
G----------------------------------------------------------------|
D----------------------------------------------------------------|
A----------------------------------------------------------------|  
E----------------------------------------------------------------|

^^^^^^^^^
****Pakinggan nyu na lng kung ilang gn2*****
Guitar 1:
e----12-14-15--19---------------------|
B-----------------20------------------|
G-------------------------------------|
D-------------------------------------|
A-------------------------------------|  
E-------------------------------------|

          ^^^^^^
*****pati toh****

***Repeat intro***

Tapos na! heheh meron p pla kasunod 2 pro unti na lng un
tntmad na ku eh!! hi nga pla uley sa nga kbanda ko 
Mary,kyla,vinel,gel and meysi! YLLUMINATY!!!!!!= )
Related for Close To The End tab