Song name
# A B C D E F G H I J K L M N O P Q R S T U V W X Y Z

Moke - Rule The World tab

Moke - Rule The World

Guitar 1 (Felix Maginn):	Capo 2nd fret
Guitar 2 (Phil Tilli):	        Capo 2nd fret

Chords used:
Bm		x24432
Bsus2	        x24422
F#		244322
F#sus4	        244422
D		xx0232
A		x02220
Em7		022030
Em              022000
Em2             x79987
G		320033
F#m7/4		x44200

====================================================================
------------------------------Intro---------------------------------
====================================================================

Guitar 1 (0:00)
e-2--x-2-2--x-2-2--x-2-2--x-|--------------------------------|
b-3--x-2-2--x-3-3--x-2-2--x-|-2-2--x-2-2--x-2-2--x-2-2---2---|
g-4--x-4-4--x-4-4--x-4-4--x-|-3-3--x-4-4--x-3-3--x-3-3h4-3h4-|
d---------------------------|-4-4--x-4-4--x-4-4--x-4-4---4---|
a---------------------------|--------------------------------|
E---------------------------|--------------------------------|


Guitar 1 (0:08)
e-2--x-2-2--x-2-2--x-2-2--x-|--------------------------------|
b-3--x-2-2--x-3-3--x-2-2--x-|-2-2--x-2-2--x-2-2--x-2-2---2---|
g-4--x-4-4--x-4-4--x-4-4--x-|-3-3--x-4-4--x-3-3--x-3-3h4-3h4-|
d---------------------------|-4-4--x-4-4--x-4-4--x-4-4---4---|
a---------------------------|--------------------------------|
E---------------------------|--------------------------------|

Guitar 2 (0:08)
e-2--x-2-2--x-2-2--x-2-2--x-|--------------------------------|
b-3--x-2-2--x-3-3--x-2-2--x-|-2-2--x-2-2--x-2-2--x-2-2---2---|
g-4--x-4-4--x-4-4--x-4-4--x-|-3-3--x-4-4--x-3-3--x-3-3h4-3h4-|
d---------------------------|-4-4--x-4-4--x-4-4--x-4-4---4---|
a---------------------------|--------------------------------|
E---------------------------|--------------------------------|


====================================================================
------------------------------Verse1--------------------------------
====================================================================
Guitar 1 (0:16)
     Bm                                     F#
The moonlight in my eyes, Works wonder, you got me in your spell

Guitar 2 (capo 2nd fret!)(0:16)
  Bm                        F#
e-2~----------------------|--9~---------------------|  
b-3~----------------------|-11~---------------------| 
g-4~----------------------|-11~---------------------| 
d-------------------------|-------------------------| 
a-------------------------|-------------------------| 
E-------------------------|-------------------------| 


Guitar 1 (0:23)
Bm                                                       F#
Now weĎve made a pact, itís a fact, I donít know if Itís heaven or itís hell

Guitar 2 (0:23)
  Bm                        F#
e-7~----------------------|-6~----------------------|
b-7~-------------------8~-|-7~----------------------|
g-7~-------------------7~-|-6~----------------------|
d-------------------------|-------------------------|
a-------------------------|-------------------------|
E-------------------------|-------------------------|


Guitar 1 (0:31)
D                      A
  These words I have written in my mind

Guitar 2 (0:31)
  D                        A
e------------------------|------------------------|
b------------------------|------------------------|
g-7~------------------9~-|-6~-----------------7~--|
d------------------------|------------------------|
a------------------------|------------------------|
E------------------------|------------------------|


Guitar 1 (0:40)
   Em7                      Bm           Bsus2    F#    F#sus4
I knew it all along, canít stop itís so strong.

Guitar 2 (0:40)
  Em7                      Bm   Bsus2  F#   F#sus4
e------------------------|-2-----2-----------2----|
b------------------------|-3-----2-----2-----2----|
g-4~---------------------|-4-----4-----3-----4----|
d------------------------|-------------4-----4----|
a------------------------|------------------------|
E------------------------|------------------------|


Guitar 1 (0:52)
Bm                                    F#
You have walked with kings, Made them fall down at your feet

Guitar 2 (0:52)
  Bm                        F#
e-----------------2-2h3p2-|---------------------2b--|
b----------------3--------|-----------------2-3---3-|
g---------------4---------|---------------3---------|
d-------------------------|--------------4----------|
a-------------------------|-------------------------|
E-------------------------|-------------------------|
 ..........P.M............


Guitar 1 (1:00)
    Bm                                                   F#
The purest of a heart, you can stop, You can steal, they must admit defeat.

Guitar 2 (1:00)
  Bm                        F#
e-2--------------12~--12~-|--6~---------------------|
b-3--------------14~--14~-|--7~---------------------|
g-4-----------------------|--6~---------------------|
d-------------------------|-------------------------|
a-------------------------|-------------------------|
E-------------------------|-------------------------|


Guitar 1 (1:08)
D                     A
   A simple seed on which our loveís been sown

Guitar 2 (1:08)
  D                        A
e------------------------|------------------------|
b------------------------|------------------------|
g-7~----------------9b11-|-6~-----------------7~--|
d------------------------|------------------------|
a------------------------|------------------------|
E------------------------|------------------------|


Guitar 1 (1:15)
    Em7                          A
Iím timber for the flames, As I learn to play your games.

Guitar 2 (1:15)
  Em7                      A
e------------------------|-------0--0--0-0-0-0-0-0-0-0-|
b------------------------|-------2--2--2-2-2-2-2-2-2-2-|
g-9~---------------------|-----2---0---2-2-2-2-2-2-2-2-|
d------------------------|---2---------2-2-2-2-2-2-2-2-|
a------------------------|-0-----------0-0-0-0-0-0-0-0-|
E------------------------|-----------------------------|


====================================================================
------------------------------Chorus--------------------------------
====================================================================

Guitar 1 (1:23)
G                  D
  You and I we are beautiful

Guitar 2 (1:23)
  G                              D
e------------------------------|---------------------------------|
b------------------------------|---------------------------------|
g-12-12-12-12-12-12-12-12------|-7-7-7-7-7-7-7-7-7-7-7-7-7-7-7-7-|
d--x--x--x--x--x--x--x--x-(2x)-|-x-x-x-x-x-x-x-x-x-x-x-x-x-x-x-x-|
a-10-10-10-10-10-10-10-10------|-5-5-5-5-5-5-5-5-5-5-5-5-5-5-5-5-|
E------------------------------|---------------------------------|


Guitar 1 (1:32)
   A                           Em
Together, We're gonna rule the world

Guitar 2
  A                                 Em
e---------------------------------|---------------------------------|
b---------------------------------|---------------------------------|
g---------------------------------|--------------0--------------0---|
d-7-7-7-7-7-7-7-7-7-7-7-7-7-7-7-7-|-------0--0h2---------0--0h2-----|
a-x-x-x-x-x-x-x-x-x-x-x-x-x-x-x-x-|------2--2-----------2--2--------|
E-5-5-5-5-5-5-5-5-5-5-5-5-5-5-5-5-|-0--/3----------0--/3------------|


Guitar 1 (1:39)
G                  D
  You and I we are beautiful

Guitar 2 (1:39)
  G                              D
e------------------------------|---------------------------------|
b------------------------------|---------------------------------|
g-12-12-12-12-12-12-12-12------|-7-7-7-7-7-7-7-7-7-7-7-7-7-7-7-7-|
d--x--x--x--x--x--x--x--x-(2x)-|-x-x-x-x-x-x-x-x-x-x-x-x-x-x-x-x-|
a-10-10-10-10-10-10-10-10------|-5-5-5-5-5-5-5-5-5-5-5-5-5-5-5-5-|
E------------------------------|---------------------------------|


Guitar 1 (1:48)
   Em2                          Bm
Together, We're gonna rule the world

Guitar 2 (1:48)
  Em
e----7------7--7--------|
b----8------8--8--------|
g----9------9--9--------|
d----9------9--9--------|
a----7------7--7--------|
E-0---------------------|


====================================================================
------------------------------Verse2--------------------------------
====================================================================

Guitar 1 (1:52)
e-2--x-2-2--x-2-2--x-2-2--x-|--------------------------------|
b-3--x-2-2--x-3-3--x-2-2--x-|-2-2--x-2-2--x-2-2--x-2-2---2---|
g-4--x-4-4--x-4-4--x-4-4--x-|-3-3--x-4-4--x-3-3--x-3-3h4-3h4-|
d---------------------------|-4-4--x-4-4--x-4-4--x-4-4---4---|
a---------------------------|--------------------------------|
E---------------------------|--------------------------------|

Guitar 2 (1:52)
e-2--x-2-2--x-2-2--x-2-2--x-|--------------------------------|
b-3--x-2-2--x-3-3--x-2-2--x-|-2-2--x-2-2--x-2-2--x-2-2---2---|
g-4--x-4-4--x-4-4--x-4-4--x-|-3-3--x-4-4--x-3-3--x-3-3h4-3h4-|
d---------------------------|-4-4--x-4-4--x-4-4--x-4-4---4---|
a---------------------------|--------------------------------|
E---------------------------|--------------------------------|


Guitar 1 (1:59)
    Bm                              F#  
You cover up the light, just as you never take the blame 
       Bm                                        F#
Weríe whispering, whispering, whispering, we're whispering your name.


Guitar 1 (2:16)
D                     A
   A simple seed on which our loveís been sown

Guitar 2 (2:16)
  D                         A
e-------------------------|------------------------|
b-------------------------|------------------------|
g-7~---------------9b11~-11~~-----------------11~--|
d-------------------------|------------------------|
a-------------------------|------------------------|
E-------------------------|------------------------|


Guitar 1 (2:24)
     Em7                       A
Itís rotten to the core, and still we all want more.

Guitar 2 (2:24)
  Em7                      A
e------------------------|-------0--0--0-0-0-0-0-0-0-0-|
b------------------------|-------2--2--2-2-2-2-2-2-2-2-|
g-9b11~~-----------------|-----2---0---2-2-2-2-2-2-2-2-|
d------------------------|---2---------2-2-2-2-2-2-2-2-|
a------------------------|-0-----------0-0-0-0-0-0-0-0-|
E------------------------|-----------------------------|

====================================================================
------------------------------Chorus--------------------------------
====================================================================

2nd chorus is the same as the 1st, except for a slight difference in the ending:

Guitar 1 (2:56)
   Em2                           
Together...

Guitar 2 (2:56)
  Em
e----7------7--7---7-7-7-7-7-7-7-|
b----8------8--8---8-8-8-8-8-8-8-|
g----9------9--9---9-9-9-9-9-9-9-|
d----9------9--9-----------------|
a----7------7--7-----------------|
E-0------------------------------|


====================================================================
------------------------------Bridge--------------------------------
====================================================================

Guitar 1 (3:00)    
|G    |G    |D    |D    |F#m7/4 |F#m7/4 |A    |A    |

Guitar 2 (3:00)
  G                              D
e-------------------------------|--------------------------------|
b-------------------------------|--------------------------------|
g-------------------------------|--------------------------------|
d-------------------------------|--------------------------------|
a-5--4-5-4-5-4---5--4-5-4-5-4---|-7--5-7-5-7-5-7-5-7-5-7-5-7-5-7-|
E-------------------------------|--------------------------------|

e-------------------------------|--------------------------------|
b-------------------------------|--------------------------------|
g-------------------------------|--------------------------------|
d-------------------------------|----7-7--7----7b-----7--7-9b11--|
a-4~-------------------------5--|-7h9----9--9p7----7h9-----------|
E-------------------------------|--------------------------------|


====================================================================
--------------------------Chorus+Outro-------------------------------
====================================================================

3rd chorus is the same as the 1st, except for the ending, again.

Guitar 1 (3:40)
   Em2                           
Together...
 
Guitar 2 (3:40)
  Em2
e----7------7--7-------------|----7------7--7-------------|
b----8------8--8-------------|----8------8--8-------------|
g----9------9--9-------------|----9------9--9-------------|  repeat
d----9------9--9-------------|----9------9--9-------------|
a----7------7--7----2-1-0----|----7------7--7----2-1-0----|
E-0---------------0-------3b-|-0---------------0-------3b-|


Ending:

Guitar 1 & 2 (4:24)
e----7----7--7--------------|
b----8----8--8--------------|
g----9----9--9--------------|
d----9----9--9--------------|
a----7----7--7--------------|
E-0-------------------------|

Tap to rate this tab
 
# A B C D E F G H I J K L M N O P Q R S T U V W X Y Z