Song name
# A B C D E F G H I J K L M N O P Q R S T U V W X Y Z

Moke - Long Way tab

hy this is my first tab i've made so i hope its good,
this is a part of the solo from long way~moke
(* means push tail up)


        2 times                            2 times
E|-----18-16-15--|-------------16-15---|-----18-16-15--|-------------16-15----|
B|---16--------16|15-16--16-15-------16|---16--------16|15-16--16-15-------16-|
G|-15------------|-----15--------------|-15------------|-----15---------------|
D|---------------|---------------------|---------------|----------------------|
A|---------------|---------------------|---------------|----------------------|
E|---------------|---------------------|---------------|----------------------|

E|------18-16-15--16-15---16-15---16-15---16-15---16-15----------|
B|---16---------16------16------16------16------16------16-15-16*|
G|-15------------------------------------------------------------|
D|---------------------------------------------------------------|
A|---------------------------------------------------------------|
E|---------------------------------------------------------------|
Tap to rate this tab
 
# A B C D E F G H I J K L M N O P Q R S T U V W X Y Z