Song name
# A B C D E F G H I J K L M N O P Q R S T U V W X Y Z

Mokoma - Kiellan Itseni tab

#----------------------------------PLEASE NOTE---------------------------------#
#This file is the author's own work and represents their interpretation of the #
#song. You may only use this file for private study, scholarship, or research. #
#------------------------------------------------------------------------------#

KIELLÄN ITSENI
As recorded by Mokoma

Transcribed by zesar_1337
	



Gtr I (D A D G B E) - 'Kuisma'
Gtr II (D A D G B E) - 'Tuomo'

  Q=202
 4/4
  Gtr I
                                      PM                      PM      PM
  E H..               H..             E   E H..               E E E E E E E E
|-------------------|-------------------|-------------------|------------------|
|-------------------|-------------------|-------------------|------------------|
|-------------------|-------------------|-------------------|------------------|
|-0-----------------|-----------------0-|-0-----------------|------------------|
|-0-----------------|-----------------0-|-0-----------------|---6-6-6---6-6-6--|
|-0-----------------|-----------------0-|-0-----------------|-0-------0--------|
|
| Gtr II
|   PM    PM  PM  PM--|     PM    PM  PM    PM    PM      PM--|       PM
| E E   E E E E E E   E   E E E E E E E   E E   E E E E E E   E E E E E E E E
|-------------------|-------------------|-------------------|------------------|
|-------------------|-------------------|-------------------|------------------|
|-------------------|-------------------|-------------------|------------------|
|-------------------|-------------------|-------------------|------------------|
|-5-----3---6---3---|-----5---3-6---3---|-5-----3---6-6-3---|---6-6-6---6-6-6--|
|---0-----0---0---0-|-0-----0-----0---0-|---0-----0-------0-|-0-------0--------|


  Gtr I
                                      PM
  E H..               H..             E   E H..                W
|-------------------|-------------------|-------------------|-------|
|-------------------|-------------------|-------------------|-------|
|-------------------|-------------------|-------------------|-------|
|-0-----------------|-----------------0-|-0-----------------|-/x----|
|-0-----------------|-----------------0-|-0-----------------|-/x----|
|-0-----------------|-----------------0-|-0-----------------|-/x----|
|
| Gtr II
|   PM    PM  PM  PM--|     PM    PM  PM    PM    PM      PM
| E E   E E E E E E   E   E E E E E E E   E E   E E E E E E    W
|-------------------|-------------------|-------------------|-------|
|-------------------|-------------------|-------------------|-------|
|-------------------|-------------------|-------------------|-------|
|-------------------|-------------------|-------------------|-/x----|
|-5-----3---6---3---|-----5---3-6---3---|-5-----3---6-6-3---|-/x----|
|---0-----0---0---0-|-0-----0-----0---0-|---0-----0-------0-|-/x----|


  Gtrs I, II
    PM  PM  PM  PM--|   PM    PM  PM    PM  PM      PM--|       PM
  E E E E E E E E   E E E E E E E E   E E E E E E E E   E E E E E E E E
|-----------------|-----------------|-----------------|-----------------|
|-----------------|-----------------|-----------------|-----------------|
|-----------------|-----------------|-----------------|-----------------|
|-----------------|-----------------|-----------------|-----------------|
|-5---3---6---3---|---5---3-6---3---|-5---3---6-6-3---|---6-6-6---6-6-6-|
|---0---0---0---0-|-0---0-----0---0-|---0---0-------0-|-0-------0-------|


  Gtrs I, II
    PM  PM  PM  PM--|   PM    PM  PM    PM  PM      PM--|       PM
  E E E E E E E E   E E E E E E E E   E E E E E E E E   E E E E E E E E
|-----------------|-----------------|-----------------|-----------------|
|-----------------|-----------------|-----------------|-----------------|
|-----------------|-----------------|-----------------|-----------------|
|-----------------|-----------------|-----------------|---------4-------|
|-5---3---6---3---|---5---3-6---3---|-5---3---6-6-3---|---6-5-6---6-5-3-|
|---0---0---0---0-|-0---0-----0---0-|---0---0-------0-|-0---------------|


    Gtrs I, II
      PM  PM--------------------|
    E E E E E E S S E   E E S S E E E E E
||--------------------|-------------------|
||o-------------------|-------------------|
||--------------------|-------------------|
||--------------------|-----------7---6---|
||o-5---3-------------|-------------5---5-|
||----0---0-0-0-0-0-0-|-0-0-0-0-0---------|


        PM----|   PM------|   PM----|   PM
  E E E E S S E E E   S S E E E S S E E E
|-------------------|----------------------||
|-------------------|---------------------o||
|-------------------|----------------------||
|-3-----------------|----------------------||
|---3-6---------6---|-------6---------6---o||
|-------0-0-0-0---0-|-0-0-0---0-0-0-0---0--||


    Gtr I
    W                   +W
||--------------------|---------------------|
||o-------------------|---------------------|
||--------------------|---------------------|
||--7-----------------|-(7)-----------------|
||o-5-----------------|-(5)-----------------|
||--------------------|---------------------|
|
|   Gtr II
|     PM  PM----------------------|
|   E E E E E E S S E    E  E S S E E E E E
||--------------------|---------------------|
||o-------------------|---------------------|
||--------------------|---------------------|
||--------------------|-------------7---6---|
||o-5---3-------------|---------------5---5-|
||----0---0-0-0-0-0-0-|--0--0-0-0-0---------|


  +H        H           +W                     3x
|---------------------|------------------------||
|---------------------|-----------------------o||
|---------------------|------------------------||
|-(7)-------8---------|-(8)--------------------||
|-(5)-------6---------|-(6)-------------------o||
|---------------------|------------------------||
|
|         PM----|   PM--------|   PM----|   PM
|  E  E E E S S E E E    S  S E E E S S E E E  3x
|---------------------|------------------------||
|---------------------|-----------------------o||
|---------------------|------------------------||
|--3------------------|------------------------||
|-----3-6---------6---|---------6---------6---o||
|---------0-0-0-0---0-|--0--0-0---0-0-0-0---0--||


  Gtr I
  W                   +W
|-------------------|---------------------|
|-------------------|---------------------|
|-------------------|---------------------|
|-7-----------------|-(7)-----------------|
|-5-----------------|-(5)-----------------|
|-------------------|---------------------|
|
| Gtr II
|   PM  PM----------------------|
| E E E E E E S S E    E  E S S E E E E E
|-------------------|---------------------|
|-------------------|---------------------|
|-------------------|---------------------|
|-------------------|-------------7---6---|
|-5---3-------------|---------------5---5-|
|---0---0-0-0-0-0-0-|--0--0-0-0-0---------|


                        PM         PM
  +H        H           E Q.       E Q.
|---------------------|------------------------|
|---------------------|------------------------|
|---------------------|------------------------|
|-(7)-------8---------|-1----------1-----------|
|-(5)-------6---------|-1----------1-----------|
|---------------------|-1----------1-----------|
|
|         PM----|   PM-------|   PM-----|   PM
|  E  E E E S S E E E   S S  E E E S S  E E E
|---------------------|------------------------|
|---------------------|------------------------|
|---------------------|------------------------|
|--3------------------|------------------------|
|-----3-6---------6---|--------6----------6----|
|---------0-0-0-0---0-|-0-0--0---0-0-0--0---0--|


  Gtrs I, II
  W          +W           W          W
|----------|------------|----------|------|
|----------|------------|----------|------|
|----------|------------|----------|------|
|-2--------|-(2)--------|-5--------|-1----|
|-2--------|-(2)--------|-3--------|-1----|
|-2--------|-(2)--------|-5--------|-1----|


  Gtr I
  W             +W              W          W
|-------------|---------------|----------|------|
|-------------|---------------|----------|------|
|-------------|---------------|----------|------|
|-2-----------|-(2)-----------|-5--------|-1----|
|-2-----------|-(2)-----------|-3--------|-1----|
|-2-----------|-(2)-----------|-5--------|-1----|
|
| Gtr II
| Q  E E H       Q   E E H      W          W
|-------------|---------------|----------|------|
|-------------|---------------|----------|------|
|-------------|---------------|----------|------|
|-2-----------|--2------------|-5--------|-1----|
|--------2----|----------2----|-3--------|-1----|
|----2-5------|------2-5------|-5--------|-1----|


  Gtrs I, II
     PM--------------------------------------------------------------|
  Q  E E E E E E   E E E E E E E E   E E E E E E E E   E E E E E E E E
|----------------|-----------------|-----------------|-----------------|
|----------------|-----------------|-----------------|-----------------|
|----------------|-----------------|-----------------|-----------------|
|-2--------------|-----------------|-----------------|-----------------|
|-2--2-2-2-2-2-2-|-2-2-2-2-2-2-2-2-|-3-3-3-3-3-3-3-3-|-1-1-1-1-1-1-1-1-|
|-2--2-2-2-2-2-2-|-2-2-2-2-2-2-2-2-|-5-5-5-5-5-5-5-5-|-1-1-1-1-1-1-1-1-|


  Gtr I
  PM------------------------------|
  E E E E E E E E   E E E E E E E E   W          W
|-----------------|-----------------|----------|------|
|-----------------|-----------------|----------|------|
|-----------------|-----------------|----------|------|
|-----------------|-----------------|-5--------|-5----|
|-2-2-2-2-2-2-2-2-|-2-2-2-2-2-2-2-2-|-3--------|-2----|
|-2-2-2-2-2-2-2-2-|-2-2-2-2-2-2-2-2-|-5--------|------|
|
| Gtr II
| Q   E E H         Q   E E H         W          W
|-----------------|-----------------|----------|------|
|-----------------|-----------------|----------|------|
|-----------------|-----------------|----------|------|
|-2---------------|-2---------------|-5--------|-5----|
|---------2-------|---------2-------|-3--------|-2----|
|-----2-5---------|-----2-5---------|-5--------|------|


  Gtrs I, II
    PM  PM  PM  PM--|   PM    PM  PM    PM  PM      PM--|       PM
  E E E E E E E E   E E E E E E E E   E E E E E E E E   E E E E E E E E
|-----------------|-----------------|-----------------|-----------------|
|-----------------|-----------------|-----------------|-----------------|
|-----------------|-----------------|-----------------|-----------------|
|-7---5---8---5---|---7---5-8---5---|-7---5---8-8-5---|---8-8-8---8-8-8-|
|-5---3---6---3---|---5---3-6---3---|-5---3---6-6-3---|---6-6-6---6-6-6-|
|---0---0---0---0-|-0---0-----0---0-|---0---0-------0-|-0-------0-------|


  Gtrs I, II
    PM  PM  PM  PM--|   PM    PM  PM    PM  PM      PM--|       PM
  E E E E E E E E   E E E E E E E E   E E E E E E E E   E E E E E E E E
|-----------------|-----------------|-----------------|-----------------|
|-----------------|-----------------|-----------------|-----------------|
|-----------------|-----------------|-----------------|-----------------|
|-7---5---8---5---|---7---5-8---5---|-7---5---8-8-5---|---------4-------|
|-5---3---6---3---|---5---3-6---3---|-5---3---6-6-3---|---6-5-6---6-5-3-|
|---0---0---0---0-|-0---0-----0---0-|---0---0-------0-|-0---------------|


    Gtr I
    W                   +W
||--------------------|---------------------|
||o-------------------|---------------------|
||--------------------|---------------------|
||--7-----------------|-(7)-----------------|
||o-5-----------------|-(5)-----------------|
||--------------------|---------------------|
|
|   Gtr II
|     PM  PM----------------------|
|   E E E E E E S S E    E  E S S E E E E E
||--------------------|---------------------|
||o-------------------|---------------------|
||--------------------|---------------------|
||--------------------|-------------7---6---|
||o-5---3-------------|---------------5---5-|
||----0---0-0-0-0-0-0-|--0--0-0-0-0---------|


  +H        H           +W                     3x
|---------------------|------------------------||
|---------------------|-----------------------o||
|---------------------|------------------------||
|-(7)-------8---------|-(8)--------------------||
|-(5)-------6---------|-(6)-------------------o||
|---------------------|------------------------||
|
|         PM----|   PM--------|   PM----|   PM
|  E  E E E S S E E E    S  S E E E S S E E E  3x
|---------------------|------------------------||
|---------------------|-----------------------o||
|---------------------|------------------------||
|--3------------------|------------------------||
|-----3-6---------6---|---------6---------6---o||
|---------0-0-0-0---0-|--0--0-0---0-0-0-0---0--||


  Gtr I
  W                   +W
|-------------------|---------------------|
|-------------------|---------------------|
|-------------------|---------------------|
|-7-----------------|-(7)-----------------|
|-5-----------------|-(5)-----------------|
|-------------------|---------------------|
|
| Gtr II
|   PM  PM----------------------|
| E E E E E E S S E    E  E S S E E E E E
|-------------------|---------------------|
|-------------------|---------------------|
|-------------------|---------------------|
|-------------------|-------------7---6---|
|-5---3-------------|---------------5---5-|
|---0---0-0-0-0-0-0-|--0--0-0-0-0---------|


                        PM         PM
  +H        H           E Q.       E Q.
|---------------------|------------------------|
|---------------------|------------------------|
|---------------------|------------------------|
|-(7)-------8---------|-1----------1-----------|
|-(5)-------6---------|-1----------1-----------|
|---------------------|-1----------1-----------|
|
|         PM----|   PM-------|   PM-----|   PM
|  E  E E E S S E E E   S S  E E E S S  E E E
|---------------------|------------------------|
|---------------------|------------------------|
|---------------------|------------------------|
|--3------------------|------------------------|
|-----3-6---------6---|--------6----------6----|
|---------0-0-0-0---0-|-0-0--0---0-0-0--0---0--|


  Gtrs I, II
  W          +W           W          W
|----------|------------|----------|------|
|----------|------------|----------|------|
|----------|------------|----------|------|
|-2--------|-(2)--------|-5--------|-1----|
|-2--------|-(2)--------|-3--------|-1----|
|-2--------|-(2)--------|-5--------|-1----|


  Gtr I
  W             +W              W          W
|-------------|---------------|----------|------|
|-------------|---------------|----------|------|
|-------------|---------------|----------|------|
|-2-----------|-(2)-----------|-5--------|-1----|
|-2-----------|-(2)-----------|-3--------|-1----|
|-2-----------|-(2)-----------|-5--------|-1----|
|
| Gtr II
| Q  E E H       Q   E E H      W          W
|-------------|---------------|----------|------|
|-------------|---------------|----------|------|
|-------------|---------------|----------|------|
|-2-----------|--2------------|-5--------|-1----|
|--------2----|----------2----|-3--------|-1----|
|----2-5------|------2-5------|-5--------|-1----|


  Gtrs I, II
     PM--------------------------------------------------------------|
  Q  E E E E E E   E E E E E E E E   E E E E E E E E   E E E E E E E E
|----------------|-----------------|-----------------|-----------------|
|----------------|-----------------|-----------------|-----------------|
|----------------|-----------------|-----------------|-----------------|
|-2--------------|-----------------|-----------------|-----------------|
|-2--2-2-2-2-2-2-|-2-2-2-2-2-2-2-2-|-3-3-3-3-3-3-3-3-|-1-1-1-1-1-1-1-1-|
|-2--2-2-2-2-2-2-|-2-2-2-2-2-2-2-2-|-5-5-5-5-5-5-5-5-|-1-1-1-1-1-1-1-1-|


  Gtr I
  PM------------------------------|
  E E E E E E E E   E E E E E E E E   W          W
|-----------------|-----------------|----------|------|
|-----------------|-----------------|----------|------|
|-----------------|-----------------|----------|------|
|-----------------|-----------------|-5--------|-5----|
|-2-2-2-2-2-2-2-2-|-2-2-2-2-2-2-2-2-|-3--------|-2----|
|-2-2-2-2-2-2-2-2-|-2-2-2-2-2-2-2-2-|-5--------|------|
|
| Gtr II
| Q   E E H         Q   E E H         W          W
|-----------------|-----------------|----------|------|
|-----------------|-----------------|----------|------|
|-----------------|-----------------|----------|------|
|-2---------------|-2---------------|-5--------|-5----|
|---------2-------|---------2-------|-3--------|-2----|
|-----2-5---------|-----2-5---------|-5--------|------|


    Gtrs I, II
      PM  PM  PM  PM--|   PM    PM  PM    PM  PM      PM--|       PM
    E E E E E E E E   E E E E E E E E   E E E E E E E E   E E E E E E E E
||------------------|-----------------|-----------------|-------------------||
||o-----------------|-----------------|-----------------|------------------o||
||------------------|-----------------|-----------------|-------------------||
||--7---5---8---5---|---7---5-8---5---|-7---5---8-8-5---|---8-8-8---8-8-8---||
||o-5---3---6---3---|---5---3-6---3---|-5---3---6-6-3---|---6-6-6---6-6-6--o||
||----0---0---0---0-|-0---0-----0---0-|---0---0-------0-|-0-------0---------||


  Gtr I
                                     PM--|
  W                 +H..             E   E H..              W
|-----------------|--------------------|------------------|-----------------|
|-----------------|--------------------|------------------|-----------------|
|-----------------|--------------------|------------------|-----------------|
|-3---------------|-(3)--------------0-|-0----------------|-----------------|
|-3---------------|-(3)--------------0-|-0----------------|-----------------|
|-3---------------|-(3)--------------0-|-0----------------|-----------------|
|
| Gtr II
| PM|   PM  PM  PM       PM  PM  PM      PM|     PM  PM     PM|   PM  PM
| E E E E E E E E    E   E E E E E Q     E E   E E E E Q    E E E E E E  Q
|-----------------|--------------------|------------------|-----------------|
|-----------------|--------------------|------------------|-----------------|
|-----------------|--------------------|------------------|-----------------|
|-----5---3---6---|--5-----3-----------|-------7---5---8--|-----7---8---11--|
|-----------------|------------6---3---|-------5---3---6--|-----5---6----9--|
|-3-3---3---3---3-|------3---3---3-----|-0-0-----0---0----|-0-0---0---0-----|


  Gtr I
  PM------------------------|        PM|     PM            PM----|
  E E E E E E E E   E E E E E E Q    E E E E E E E E   E E E E E E Q
|-----------------|----------------|-----------------|----------------|
|-----------------|----------------|-----------------|----------------|
|-----------------|----------------|-----------------|----------------|
|-3---3---3---3---|-3---3---3---3--|-----5s7---5s7---|-5s7---------8--|
|-3---3---3---3---|-3---3---3---3--|-----3s5---3s5---|-3s5---------6--|
|-3---3---3---3---|-3---3---3---3--|-0-0-----0-----0-|-----0-0-0-0----|
|
| Gtr II
| PM|   PM  PM  PM    PM  PM  PM     PM|     PM            PM----|
| E E E E E E E E   E E E E E E Q    E E E E E E E E   E E E E E E Q
|-----------------|----------------|-----------------|----------------|
|-----------------|----------------|-----------------|----------------|
|-----------------|----------------|-----------------|----------------|
|-----5---3---6---|-5---3----------|-----5s7---5s7---|-5s7---------8--|
|-----------------|---------6---3--|-----3s5---3s5---|-3s5---------6--|
|-3-3---3---3---3-|---3---3---3----|-0-0-----0-----0-|-----0-0-0-0----|


    Gtrs I, II
    PM|   PM  PM  PM    PM  PM  PM     PM|   PM  PM     PM|   PM  PM
    E E E E E E E E   E E E E E E Q    E E E E E E Q    E E E E E E  Q
||------------------|----------------|----------------|----------------|
||o-----------------|----------------|----------------|----------------|
||------------------|----------------|----------------|----------------|
||------5---3---6---|-5---3----------|-----7---5---8--|-----7---8---11-|
||o-----------------|---------6---3--|-----5---3---6--|-----5---6----9-|
||--3-3---3---3---3-|---3---3---3----|-0-0---0---0----|-0-0---0---0----|


  Gtrs I, II
  PM|   PM  PM  PM    PM  PM  PM     PM|     PM            PM----|
  E E E E E E E E   E E E E E E Q    E E E E E E E E   E E E E E E Q
|-----------------|----------------|-----------------|-----------------||
|-----------------|----------------|-----------------|----------------o||
|-----------------|----------------|-----------------|-----------------||
|-----5---3---6---|-5---3----------|-----5s7---5s7---|-5s7---------8---||
|-----------------|---------6---3--|-----3s5---3s5---|-3s5---------6--o||
|-3-3---3---3---3-|---3---3---3----|-0-0-----0-----0-|-----0-0-0-0-----||


  Gtrs I, II
  PM|     PM            PM----|
  E E E E E E E E   E E E E E E Q
|-----------------|------------------|
|-----------------|------------------|
|-----------------|------------------|
|-----5s7---5s7---|-5s7---------8----|
|-----3s5---3s5---|-3s5---------6----|
|-0-0-----0-----0-|-----0-0-0-0------|


  Gtrs I, II
  W          +W           W          W
|----------|------------|----------|------|
|----------|------------|----------|------|
|----------|------------|----------|------|
|-2--------|-(2)--------|-5--------|-1----|
|-2--------|-(2)--------|-3--------|-1----|
|-2--------|-(2)--------|-5--------|-1----|


  Gtr I
  W             +W              W          W
|-------------|---------------|----------|------|
|-------------|---------------|----------|------|
|-------------|---------------|----------|------|
|-2-----------|-(2)-----------|-5--------|-1----|
|-2-----------|-(2)-----------|-3--------|-1----|
|-2-----------|-(2)-----------|-5--------|-1----|
|
| Gtr II
| Q  E E H       Q   E E H      W          W
|-------------|---------------|----------|------|
|-------------|---------------|----------|------|
|-------------|---------------|----------|------|
|-2-----------|--2------------|-5--------|-1----|
|--------2----|----------2----|-3--------|-1----|
|----2-5------|------2-5------|-5--------|-1----|


  Gtrs I, II
     PM--------------------------------------------------------------|
  Q  E E E E E E   E E E E E E E E   E E E E E E E E   E E E E E E E E
|----------------|-----------------|-----------------|-----------------|
|----------------|-----------------|-----------------|-----------------|
|----------------|-----------------|-----------------|-----------------|
|-2--------------|-----------------|-----------------|-----------------|
|-2--2-2-2-2-2-2-|-2-2-2-2-2-2-2-2-|-3-3-3-3-3-3-3-3-|-1-1-1-1-1-1-1-1-|
|-2--2-2-2-2-2-2-|-2-2-2-2-2-2-2-2-|-5-5-5-5-5-5-5-5-|-1-1-1-1-1-1-1-1-|


  Gtr I
  PM------------------------------|
  E E E E E E E E   E E E E E E E E   W          W
|-----------------|-----------------|----------|------|
|-----------------|-----------------|----------|------|
|-----------------|-----------------|----------|------|
|-----------------|-----------------|-5--------|-5----|
|-2-2-2-2-2-2-2-2-|-2-2-2-2-2-2-2-2-|-3--------|-2----|
|-2-2-2-2-2-2-2-2-|-2-2-2-2-2-2-2-2-|-5--------|------|
|
| Gtr II
| Q   E E H         Q   E E H         W          W
|-----------------|-----------------|----------|------|
|-----------------|-----------------|----------|------|
|-----------------|-----------------|----------|------|
|-2---------------|-2---------------|-5--------|-5----|
|---------2-------|---------2-------|-3--------|-2----|
|-----2-5---------|-----2-5---------|-5--------|------|


  Gtr I
                                      PM                      PM      PM
  E H..               H..             E   E H..               E E E E E E E E
|-------------------|-------------------|-------------------|-----------------|
|-------------------|-------------------|-------------------|-----------------|
|-------------------|-------------------|-------------------|-----------------|
|-0-----------------|-----------------0-|-0-----------------|-----------------|
|-0-----------------|-----------------0-|-0-----------------|---6-6-6---6-6-6-|
|-0-----------------|-----------------0-|-0-----------------|-0-------0-------|
|
| Gtr II
|   PM    PM  PM  PM--|     PM    PM  PM    PM    PM      PM--|       PM
| E E   E E E E E E   E   E E E E E E E   E E   E E E E E E   E E E E E E E E
|-------------------|-------------------|-------------------|-----------------|
|-------------------|-------------------|-------------------|-----------------|
|-------------------|-------------------|-------------------|-----------------|
|-------------------|-------------------|-------------------|-----------------|
|-5-----3---6---3---|-----5---3-6---3---|-5-----3---6-6-3---|---6-6-6---6-6-6-|
|---0-----0---0---0-|-0-----0-----0---0-|---0-----0-------0-|-0-------0-------|


  Gtr I
  PM
  E H..               H..             E   W
|-------------------|-------------------|-------*|
|-------------------|-------------------|-------*|
|-------------------|-------------------|-------*|
|-0-----------------|-----------------7-|-7\----*|
|-0-----------------|-----------------5-|-5\----*|
|-0-----------------|-------------------|-------*|
|
| Gtr II
|   PM    PM  PM  PM--|     PM    PM  PM
| E E   E E E E E E   E   E E E E E E E   W
|-------------------|-------------------|-------*|
|-------------------|-------------------|-------*|
|-------------------|-------------------|-------*|
|-------------------|-------------------|-7\----*|
|-5-----3---6---3---|-----5---3-6---3---|-5\----*|
|---0-----0---0---0-|-0-----0-----0---0-|-------*|



Duration Legend
---------------
W - whole; H - half; Q - quarter; E - 8th; S - 16th; T - 32nd; X - 64th; a - acciaccatura
+ - note tied to previous; . - note dotted; .. - note double dotted
Uncapitalized letters represent notes that are staccato (1/2 duration)
Irregular groupings are notated above the duration line
Duration letters will always appear directly above the note/fret number it represents the
duration for.  Duration letters with no fret number below them represent rests.  Multi-
bar rests are notated in the form Wxn, where n is the number of bars to rest for.  Low
melody durations appear below the staff

Tablature Legend
----------------
 h   - hammer-on
 p   - pull-off
 b   - bend
 pb  - pre-bend
 r   - bend release (if no number after the r, then release immediately)
 /\  - slide into or out of (from/to "nowhere")
 s   - legato slide
 S   - shift slide
 - natural harmonic
[n]  - artificial harmonic
n(n) - tapped harmonic
 ~   - vibrato
 tr  - trill
 T   - tap
 TP  - trem. picking
 PM  - palm muting
\n/  - tremolo bar dip; n = amount to dip
 \n  - tremolo bar down
 n/  - tremolo bar up
/n\  - tremolo bar inverted dip
 =   - hold bend; also acts as connecting device for hammers/pulls
 <> - volume swell (louder/softer)
 x   - on rhythm slash represents muted slash
 o   - on rhythm slash represents single note slash

Misc Legend
-----------
 |  - bar
||  - double bar
||o - repeat start
o|| - repeat end
*|  - double bar (ending)
 :  - bar (freetime)
 $  - Segno
 &  - Coda
Tempo markers -  = BPM(8/16=s8/s16), where s8 = swing 8ths, s16 = swing 16ths

Tap to rate this tab
 
# A B C D E F G H I J K L M N O P Q R S T U V W X Y Z