Song name
# A B C D E F G H I J K L M N O P Q R S T U V W X Y Z

Mokoma - Mina Elan tab

#----------------------------------PLEASE NOTE---------------------------------#
#This file is the author's own work and represents their interpretation of the #
#song. You may only use this file for private study, scholarship, or research. #
#------------------------------------------------------------------------------#

MINÄ ELÄN!
As recorded by Mokoma

Transcribed by zesar_1337
	



Gtr I (D A D G B E) - 'Tuomo'
Gtr II (D A D G B E) - 'Kuisma'
Gtr III (D A D G B E) - 'Melodia'

  Q=180
 4/4
  Gtr III
  S S S S S S S S S S S S S S S S    S  S S S S S S S S S S S S S S S
|---------------------------------|-----------------------------------|
|---------------------------------|-----------------------------------|
|-------------------------5-5-5-5-|-----------------------------------|
|---------------------------------|--6--6-6-6-5-5-5-5-----------------|
|-5-5-5-5-8-8-8-8-7-7-7-7---------|-------------------8-8-8-8-7-7-7-7-|
|---------------------------------|-----------------------------------|
|
| Gtrs I, II
| W                                 +W
|---------------------------------|-----------------------------------|
|---------------------------------|-----------------------------------|
|---------------------------------|-----------------------------------|
|-0-------------------------------|-(0)-------------------------------|
|-0-------------------------------|-(0)-------------------------------|
|-0-------------------------------|-(0)-------------------------------|


   S  S S S S S S S S S S S S S S S    S  S S S S S S S S S S S S S S S
|-----------------------------------|-------------------------------------|
|-----------------------------------|-------------------------------------|
|-----------------------------------|-------------------------------------|
|-----------------------------------|-------------------------------------|
|--8--8-8-8-5-5-5-5-5-5-5-5-8-8-8-8-|--7--7-7-7-4-4-4-4-4-4-4-4-7-7-7-7---|
|-----------------------------------|-------------------------------------|
|
| +W                                  +W
|-----------------------------------|-------------------------------------|
|-----------------------------------|-------------------------------------|
|-----------------------------------|-------------------------------------|
|-(0)-------------------------------|-(0)---------------------------------|
|-(0)-------------------------------|-(0)---------------------------------|
|-(0)-------------------------------|-(0)---------------------------------|


    Gtr III
    S S S S S S S S S S S S S S S S   S S S S S S S S S S S S S S S S
||----------------------------------|---------------------------------|
||o---------------------------------|---------------------------------|
||--------------------------5-5-5-5-|---------------------------------|
||----------------------------------|-6-6-6-6-5-5-5-5-----------------|
||o-5-5-5-5-8-8-8-8-7-7-7-7---------|-----------------8-8-8-8-7-7-7-7-|
||----------------------------------|---------------------------------|
|
|   Gtrs I, II
|   PM-----------------------------------------------------------------
|   S S S S S S S S S S S S S S S S   S S S S S S S S S S S S S S S S
||----------------------------------|---------------------------------|
||o---------------------------------|---------------------------------|
||----------------------------------|---------------------------------|
||----------------------------------|---------------------------------|
||o---------------------------------|---------------------------------|
||--0-0-0-0-0-0-0-0-0-0-0-0-0-0-0-0-|-0-0-0-0-0-0-0-0-0-0-0-0-0-0-0-0-|


  S S S S S S S S S S S S S S S S    S S S S S S S S S S S S S S S S
|---------------------------------|-------------------------------------|
|---------------------------------|-------------------------------------|
|---------------------------------|-------------------------------------|
|---------------------------------|-------------------------------------|
|-8-8-8-8-5-5-5-5-5-5-5-5-8-8-8-8-|--7-7-7-7-4-4-4-4-4-4-4-4-7-7-7-7----|
|---------------------------------|-------------------------------------|
|
|------------------------------------------------------------------|
| S S S S S S S S S S S S S S S S    S S S S S S S S S S S S S S S S
|---------------------------------|-------------------------------------|
|---------------------------------|-------------------------------------|
|---------------------------------|-------------------------------------|
|---------------------------------|-------------------------------------|
|---------------------------------|-------------------------------------|
|-0-0-0-0-0-0-0-0-0-0-0-0-0-0-0-0-|-/7-7-7-7-7-7-7-7-7-7-7-7-7-7-7-7----|


  Gtr III
  S S S S S S S S S S S S S S S S   S S S S S S S S S S S S S S S S
|---------------------------------|---------------------------------|
|---------------------------------|---------------------------------|
|-------------------------5-5-5-5-|---------------------------------|
|---------------------------------|-6-6-6-6-5-5-5-5-----------------|
|-5-5-5-5-8-8-8-8-7-7-7-7---------|-----------------8-8-8-8-7-7-7-7-|
|---------------------------------|---------------------------------|
|
| Gtrs I, II
| PM-----------------------------------------------------------------
| S S S S S S S S S S S S S S S S   S S S S S S S S S S S S S S S S
|---------------------------------|---------------------------------|
|---------------------------------|---------------------------------|
|---------------------------------|---------------------------------|
|---------------------------------|---------------------------------|
|---------------------------------|---------------------------------|
|-3-3-3-3-3-3-3-3-3-3-3-3-3-3-3-3-|-3-3-3-3-3-3-3-3-3-3-3-3-3-3-3-3-|


  S S S S S S S S S S S S S S S S     S  S  S  S  S  S  S  S  S  S  S  S  S  S  S  S
|---------------------------------|------------------------------------------------------||
|---------------------------------|-----------------------------------------------------o||
|---------------------------------|------------------------------------------------------||
|---------------------------------|------------------------------------------------------||
|-8-8-8-8-5-5-5-5-5-5-5-5-8-8-8-8-|---7--7--7--7--4--4--4--4--4--4--4--4--7--7--7--7----o||
|---------------------------------|------------------------------------------------------||
|
|---------------------------------------------------------------------------------|
| S S S S S S S S S S S S S S S S     S  S  S  S  S  S  S  S  S  S  S  S  S  S  S  S
|---------------------------------|------------------------------------------------------||
|---------------------------------|-----------------------------------------------------o||
|---------------------------------|------------------------------------------------------||
|---------------------------------|------------------------------------------------------||
|---------------------------------|-----------------------------------------------------o||
|-8-8-8-8-8-8-8-8-8-8-8-8-8-8-8-8-|-/11-11-11-11-11-11-11-11-11-11-11-11-11-11-11-11-----||


  Gtr I
    PM----|   PM--|   PM     PM--|   PM--|
  E S   S E E S S E E E   E  S S E E S S E E E
|-----------------------|----------------------|
|-----------------------|----------------------|
|-----------------------|----------------------|
|-----------------------|----------------------|
|-5---------5-------5---|-5--------5---------6-|
|---0---0-0---0-0-0---0-|----0-0-0---0-0-0-6---|
|
| Gtr II
| E H..                   H.               E E
|-----------------------|----------------------|
|-----------------------|----------------------|
|-----------------------|----------------------|
|-----------------------|----------------------|
|-0---------------------|--------------------6-|
|-0---------------------|------------------6---|


    PM----|   PM--|   PM    PM--|   PM
  E S   S E E S S E E E   E S S E E E Q  E
|-----------------------|--------------------|
|-----------------------|--------------------|
|-----------------------|--------------------|
|-----------------------|--------------------|
|-5---------5-------5---|-5-------5------1---|
|---0---0-0---0-0-0---0-|---0-0-0---0-6--1---|
|
| E H..                   H         E Q  E
|-----------------------|--------------------|
|-----------------------|--------------------|
|-----------------------|--------------------|
|-----------------------|--------------------|
|-5---------------------|----------------1---|
|-----------------------|-------------6--1---|


  Gtr I
    PM----|   PM--|   PM     PM--|   PM--|
  E S   S E E S S E E E   E  S S E E S S E E E
|-----------------------|----------------------|
|-----------------------|----------------------|
|-----------------------|----------------------|
|-----------------------|----------------------|
|-0---------5-------5---|-5--------5---------6-|
|-0-0---0-0---0-0-0---0-|----0-0-0---0-0-0-6---|
|
| Gtr II
| E H..                   H.               E E
|-----------------------|----------------------|
|-----------------------|----------------------|
|-----------------------|----------------------|
|-----------------------|----------------------|
|-0---------------------|--------------------6-|
|-0---------------------|------------------6---|


    PM----|   PM--|   PM
  E S   S E E S S E E E   Q.   Q.   Q
|-----------------------|--------------|
|-----------------------|--------------|
|-----------------------|--------------|
|-----------------------|--------------|
|-5---------5-------5---|-6----1----4--|
|---0---0-0---0-0-0---0-|-6----1----4--|
|
| E H..                   Q.   Q.   Q
|-----------------------|--------------|
|-----------------------|--------------|
|-----------------------|--------------|
|-----------------------|--------------|
|-5---------------------|-6----1----4--|
|-----------------------|-6----1----4--|


  Gtrs I, II
                              PM
  W          +W           E E E H    +E    +W
|----------|------------|----------------|--------|
|----------|------------|----------------|--------|
|----------|------------|----------------|--------|
|-0--------|-(0)--------|----------------|--------|
|-0--------|-(0)--------|-5-5-4-4----(4)-|-(4)----|
|-0--------|-(0)--------|-4-4-4-4----(4)-|-(4)----|


  Gtrs I, II
                             PM     PM|      PM     PM|
  W          +W           Q  E Q.   E E   Q  E Q.   E E
|----------|------------|---------------|---------------|
|----------|------------|---------------|---------------|
|----------|------------|---------------|---------------|
|-0--------|-(0)--------|---------------|---------------|
|-0--------|-(0)--------|-5--4-4----4-4-|-5--3-3----3-3-|
|-0--------|-(0)--------|-4--4-4----4-4-|-3--3-3----3-3-|


  Gtrs I, II
    PM----------------------------|
  E E E E E E E E   E E E E E E E E
|-----------------|-----------------|
|-----------------|-----------------|
|-----------------|-----------------|
|-0---------------|-----------------|
|-0-0-0-0-0-0-0-0-|-0-0-0-0-0-0-0-0-|
|-0-0-0-0-0-0-0-0-|-0-0-0-0-0-0-0-0-|


    PM--|   PM--|   PM    PM--|   PM--|
  E S S E E S S E E E   E S S E E S S E E E
|---------------------|---------------------|
|---------------------|---------------------|
|---------------------|---------------------|
|---------------------|---------------------|
|-5-------5-------5---|-4-------4---------6-|
|---4-4-4---4-4-4---4-|---4-4-4---4-4-4-6---|


  Gtrs I, II
   ~~~                           PM     PM|      PM     PM|
   Q   H.        +W           Q  E Q.   E E   Q  E Q.   E E
|--------------|------------|---------------|---------------|
|--------------|------------|---------------|---------------|
|--------------|------------|---------------|---------------|
|------0-------|-(0)--------|---------------|---------------|
|-[5]--0-------|-(0)--------|-5--4-4----4-4-|-5--3-3----3-3-|
|------0-------|-(0)--------|-4--4-4----4-4-|-3--3-3----3-3-|


  Gtrs I, II
    PM--|   PM--|   PM    PM--|   PM--|
  E S S E E S S E E E   E S S E E S S E E E
|---------------------|---------------------|
|---------------------|---------------------|
|---------------------|---------------------|
|---------------------|---------------------|
|-5-------5-------5---|-5-------5---------6-|
|---0-0-0---0-0-0---0-|---0-0-0---0-0-0-6---|


    PM--|   PM--|   PM    PM--|   PM
  E S S E E S S E E E   E S S E E E Q  E
|---------------------|--------------------|
|---------------------|--------------------|
|---------------------|--------------------|
|---------------------|--------------------|
|-5-------5-------5---|-5-------5------1---|
|---0-0-0---0-0-0---0-|---0-0-0---0-6--1---|


  Gtrs I, II
    PM--|   PM--|   PM    PM--|   PM--|
  E S S E E S S E E E   E S S E E S S E E E
|---------------------|---------------------|
|---------------------|---------------------|
|---------------------|---------------------|
|---------------------|---------------------|
|-0-------5-------5---|-5-------5---------6-|
|-0-0-0-0---0-0-0---0-|---0-0-0---0-0-0-6---|


    PM--|   PM--|   PM
  E S S E E S S E E E   Q.   Q.   Q
|---------------------|--------------|
|---------------------|--------------|
|---------------------|--------------|
|---------------------|--------------|
|-5-------5-------5---|-6----1----4--|
|---0-0-0---0-0-0---0-|-6----1----4--|


    Gtrs I, II
                                  PM|
    W          W          H.      E E   E E E Q.   Q
||-----------|----------|-------------|-----------------||
||o----------|----------|-------------|----------------o||
||-----------|----------|-------------|-----------------||
||--0--------|-6--------|-5-----------|-4s5-5-4----6----||
||o-0--------|-4--------|-5-------5-5-|-4s5-5-2----6---o||
||--0--------|-6--------|-5-------5-5-|-4s5-5-4----6----||


    Gtrs I, II
         PM----|      PM   PM        PM--------|
    H    E E E E   Q  E Q  E Q    Q  E E E E E E   E E E Q.   Q
||---------------|--------------|----------------|-----------------||
||o--------------|--------------|----------------|----------------o||
||---------------|--------------|----------------|-----------------||
||--0------------|-6----6----6--|-5--------------|-4s5s4-4----6----||
||o-0----0-0-0-0-|-4--4-4--4-4--|-5--5-5-5-5-5-5-|-4s5s4-2----6---o||
||--0----0-0-0-0-|-6--6-6--6-6--|-5--5-5-5-5-5-5-|-4s5s4-4----6----||


  Gtrs I, II
                              PM
  W          +W           E E E H    +E    +W
|----------|------------|----------------|--------|
|----------|------------|----------------|--------|
|----------|------------|----------------|--------|
|-0--------|-(0)--------|----------------|--------|
|-0--------|-(0)--------|-5-5-4-4----(4)-|-(4)----|
|-0--------|-(0)--------|-4-4-4-4----(4)-|-(4)----|


  Gtrs I, II
                             PM     PM|      PM     PM|
  W          +W           Q  E Q.   E E   Q  E Q.   E E
|----------|------------|---------------|---------------|
|----------|------------|---------------|---------------|
|----------|------------|---------------|---------------|
|-0--------|-(0)--------|---------------|---------------|
|-0--------|-(0)--------|-5--4-4----4-4-|-5--3-3----3-3-|
|-0--------|-(0)--------|-4--4-4----4-4-|-3--3-3----3-3-|


  Gtrs I, II
    PM----------------------------|
  E E E E E E E E   E E E E E E E E
|-----------------|-----------------|
|-----------------|-----------------|
|-----------------|-----------------|
|-0---------------|-----------------|
|-0-0-0-0-0-0-0-0-|-0-0-0-0-0-0-0-0-|
|-0-0-0-0-0-0-0-0-|-0-0-0-0-0-0-0-0-|


    PM--|   PM--|   PM    PM--|   PM--|
  E S S E E S S E E E   E S S E E S S E E E
|---------------------|---------------------|
|---------------------|---------------------|
|---------------------|---------------------|
|---------------------|---------------------|
|-5-------5-------5---|-4-------4---------6-|
|---4-4-4---4-4-4---4-|---4-4-4---4-4-4-6---|


  Gtrs I, II
   ~~~                           PM     PM|      PM     PM|
   Q   H.        +W           Q  E Q.   E E   Q  E Q.   E E
|--------------|------------|---------------|---------------|
|--------------|------------|---------------|---------------|
|--------------|------------|---------------|---------------|
|------0-------|-(0)--------|---------------|---------------|
|-[5]--0-------|-(0)--------|-5--4-4----4-4-|-5--3-3----3-3-|
|------0-------|-(0)--------|-4--4-4----4-4-|-3--3-3----3-3-|


    Gtrs I, II
                                  PM|
    W          W          H.      E E   E E E Q.   Q
||-----------|----------|-------------|-----------------||
||o----------|----------|-------------|----------------o||
||-----------|----------|-------------|-----------------||
||--0--------|-6--------|-5-----------|-4s5-5-4----6----||
||o-0--------|-4--------|-5-------5-5-|-4s5-5-2----6---o||
||--0--------|-6--------|-5-------5-5-|-4s5-5-4----6----||


    Gtrs I, II
         PM----|      PM   PM        PM--------|
    H    E E E E   Q  E Q  E Q    Q  E E E E E E   E E E Q.   Q
||---------------|--------------|----------------|-----------------||
||o--------------|--------------|----------------|----------------o||
||---------------|--------------|----------------|-----------------||
||--0------------|-6----6----6--|-5--------------|-4s5s4-4----6----||
||o-0----0-0-0-0-|-4--4-4--4-4--|-5--5-5-5-5-5-5-|-4s5s4-2----6---o||
||--0----0-0-0-0-|-6--6-6--6-6--|-5--5-5-5-5-5-5-|-4s5s4-4----6----||


  Gtrs I, II
                            PM|                                PM|
  W               +H        E E Q    W               +H        E E Q
|---------------|------------------|---------------|------------------|
|---------------|------------------|---------------|------------------|
|---------------|------------------|---------------|------------------|
|-0-------------|-(0)-------9-9-6--|-0-------------|-(0)-------9-9-6--|
|-0-------------|-(0)-------9-9-6--|-0-------------|-(0)-------9-9-6--|
|-0-------------|-(0)-------9-9-6--|-0-------------|-(0)-------9-9-6--|
|
| Gtr III
| Q   Q   Q  Q     Q    Q   Q   Q    Q   Q   Q  Q     Q    Q   Q   Q
|---------------|------------------|---------------|------------------|
|---------------|------------------|---------------|------------------|
|---------------|------------------|---------------|------------------|
|---------------|------------------|---------------|------------------|
|--------/2-----|----------/2------|--------/2-----|----------/2------|
|-0--/6------6--|--0---/6-------6--|-0--/6------6--|--0---/6-------6--|


  Gtrs I, II
                            PM|                  ~~~
  W               +H        E E Q    W           W
|---------------|------------------|----------|--------|
|---------------|------------------|----------|--------|
|---------------|------------------|----------|--------|
|-0-------------|-(0)-------9-9-6--|-0--------|--------|
|-0-------------|-(0)-------9-9-6--|-0--------|-[5]----|
|-0-------------|-(0)-------9-9-6--|-0--------|--------|
|
| Gtr III
| Q   Q   Q  Q     Q    Q   Q   Q    W           W
|---------------|------------------|----------|--------|
|---------------|------------------|----------|--------|
|---------------|------------------|----------|--------|
|---------------|------------------|----------|--------|
|--------/2-----|----------/2------|----------|--------|
|-0--/6------6--|--0---/6-------6--|----------|--------|


    Gtr III
    Q  Q  Q  Q     Q   Q  Q  Q    Q  Q  Q  Q    Q  Q  Q  Q
||--------------|---------------|-------------|--------------|
||o-------------|---------------|-------------|--------------|
||-----------5--|---------------|-------------|--------------|
||--------------|--6---5--------|-------------|--------------|
||o-5--8--7-----|---------8--7--|-8--5--5--8--|-7--4--4--7---|
||--------------|---------------|-------------|--------------|
|
|   Gtrs I, II
|   W             +W              W             W
||--------------|---------------|-------------|--------------|
||o-------------|---------------|-------------|--------------|
||--------------|---------------|-7-----------|--------------|
||--0-----------|-(0)-----------|-7-----------|-7------------|
||o-0-----------|-(0)-----------|-5-----------|-7------------|
||--0-----------|-(0)-----------|-------------|-7------------|


  Gtr III
  Q  Q  Q  Q     Q   Q  Q  Q    Q  Q  Q  Q     Q  Q  Q  Q
|-------------|---------------|-------------|---------------||
|-------------|---------------|-------------|--------------o||
|----------5--|---------------|-------------|---------------||
|-------------|--6---5--------|-------------|---------------||
|-5--8--7-----|---------8--7--|-8--5--5--8--|--7--4--4--7--o||
|-------------|---------------|-------------|---------------||
|
| Gtrs I, II
| W             +W              W              W
|-------------|---------------|-------------|---------------||
|-------------|---------------|-------------|--------------o||
|-------------|---------------|-------------|---------------||
|-3-----------|-(3)-----------|-8-----------|-11------------||
|-3-----------|-(3)-----------|-8-----------|-11-----------o||
|-3-----------|-(3)-----------|-8-----------|-11------------||


  Gtr III
  S S S S S S S S S S S S S S S S   S S S S S S S S S S S S S S S S
|---------------------------------|---------------------------------|
|---------------------------------|---------------------------------|
|-------------------------5-5-5-5-|---------------------------------|
|---------------------------------|-6-6-6-6-5-5-5-5-----------------|
|-5-5-5-5-8-8-8-8-7-7-7-7---------|-----------------8-8-8-8-7-7-7-7-|
|---------------------------------|---------------------------------|
|
| Gtrs I, II
| PM-----------------------------------------------------------------
| S S S S S S S S S S S S S S S S   S S S S S S S S S S S S S S S S
|---------------------------------|---------------------------------|
|---------------------------------|---------------------------------|
|---------------------------------|---------------------------------|
|---------------------------------|---------------------------------|
|---------------------------------|---------------------------------|
|-0-0-0-0-0-0-0-0-0-0-0-0-0-0-0-0-|-0-0-0-0-0-0-0-0-0-0-0-0-0-0-0-0-|


  S S S S S S S S S S S S S S S S    S S S S S S S S S S S S S S S S
|---------------------------------|-------------------------------------|
|---------------------------------|-------------------------------------|
|---------------------------------|-------------------------------------|
|---------------------------------|-------------------------------------|
|-8-8-8-8-5-5-5-5-5-5-5-5-8-8-8-8-|--7-7-7-7-4-4-4-4-4-4-4-4-7-7-7-7----|
|---------------------------------|-------------------------------------|
|
|------------------------------------------------------------------|
| S S S S S S S S S S S S S S S S    S S S S S S S S S S S S S S S S
|---------------------------------|-------------------------------------|
|---------------------------------|-------------------------------------|
|---------------------------------|-------------------------------------|
|---------------------------------|-------------------------------------|
|---------------------------------|-------------------------------------|
|-0-0-0-0-0-0-0-0-0-0-0-0-0-0-0-0-|-/7-7-7-7-7-7-7-7-7-7-7-7-7-7-7-7----|


  Gtr III
  S S S S S S S S S S S S S S S S   S S S S S S S S S S S S S S S S
|---------------------------------|---------------------------------|
|---------------------------------|---------------------------------|
|-------------------------5-5-5-5-|---------------------------------|
|---------------------------------|-6-6-6-6-5-5-5-5-----------------|
|-5-5-5-5-8-8-8-8-7-7-7-7---------|-----------------8-8-8-8-7-7-7-7-|
|---------------------------------|---------------------------------|
|
| Gtrs I, II
| PM-----------------------------------------------------------------
| S S S S S S S S S S S S S S S S   S S S S S S S S S S S S S S S S
|---------------------------------|---------------------------------|
|---------------------------------|---------------------------------|
|---------------------------------|---------------------------------|
|---------------------------------|---------------------------------|
|---------------------------------|---------------------------------|
|-3-3-3-3-3-3-3-3-3-3-3-3-3-3-3-3-|-3-3-3-3-3-3-3-3-3-3-3-3-3-3-3-3-|


  S S S S S S S S S S S S S S S S     S  S  S  S  S  S  S  S  S  S  S  S  S  S  S  S
|---------------------------------|-----------------------------------------------------|
|---------------------------------|-----------------------------------------------------|
|---------------------------------|-----------------------------------------------------|
|---------------------------------|-----------------------------------------------------|
|-8-8-8-8-5-5-5-5-5-5-5-5-8-8-8-8-|---7--7--7--7--4--4--4--4--4--4--4--4--7--7--7--7----|
|---------------------------------|-----------------------------------------------------|
|
|---------------------------------------------------------------------------------|
| S S S S S S S S S S S S S S S S     S  S  S  S  S  S  S  S  S  S  S  S  S  S  S  S
|---------------------------------|-----------------------------------------------------|
|---------------------------------|-----------------------------------------------------|
|---------------------------------|-----------------------------------------------------|
|---------------------------------|-----------------------------------------------------|
|---------------------------------|-----------------------------------------------------|
|-8-8-8-8-8-8-8-8-8-8-8-8-8-8-8-8-|-/11-11-11-11-11-11-11-11-11-11-11-11-11-11-11-11----|


  Gtr III
  S S S S S S S S S S S S S S S S   S S S S S S S S S S S S S S S S
|---------------------------------|---------------------------------|
|---------------------------------|---------------------------------|
|-------------------------5-5-5-5-|---------------------------------|
|---------------------------------|-6-6-6-6-5-5-5-5-----------------|
|-5-5-5-5-8-8-8-8-7-7-7-7---------|-----------------8-8-8-8-7-7-7-7-|
|---------------------------------|---------------------------------|
|
| Gtrs I, II
| PM-----------------------------------------------------------------
| S S S S S S S S S S S S S S S S   S S S S S S S S S S S S S S S S
|---------------------------------|---------------------------------|
|---------------------------------|---------------------------------|
|---------------------------------|---------------------------------|
|---------------------------------|---------------------------------|
|---------------------------------|---------------------------------|
|-0-0-0-0-0-0-0-0-0-0-0-0-0-0-0-0-|-0-0-0-0-0-0-0-0-0-0-0-0-0-0-0-0-|


   S  S  S  S  S  S  S  S  S  S  S  S  S  S  S  S    S S S S S S S S S S S S S S S S
|-------------------------------------------------|-------------------------------------|
|-------------------------------------------------|-------------------------------------|
|-------------------------------------------------|-------------------------------------|
|-------------------------------------------------|-------------------------------------|
|--8--8--8--8--5--5--5--5--5--5--5--5--8--8--8--8-|--7-7-7-7-4-4-4-4-4-4-4-4-7-7-7-7----|
|-------------------------------------------------|-------------------------------------|
|
|----------------------------------------------------------------------------------|
|  S  S  S  S  S  S  S  S  S  S  S  S  S  S  S  S    S S S S S S S S S S S S S S S S
|-------------------------------------------------|-------------------------------------|
|-------------------------------------------------|-------------------------------------|
|-------------------------------------------------|-------------------------------------|
|-------------------------------------------------|-------------------------------------|
|-------------------------------------------------|-------------------------------------|
|-12-12-12-12-12-12-12-12-12-12-12-12-12-12-12-12-|-/7-7-7-7-7-7-7-7-7-7-7-7-7-7-7-7----|


  Gtr III
  S S S S S S S S S S S S S S S S   S S S S S S S S S S S S S S S S
|---------------------------------|---------------------------------|
|---------------------------------|---------------------------------|
|-------------------------5-5-5-5-|---------------------------------|
|---------------------------------|-6-6-6-6-5-5-5-5-----------------|
|-5-5-5-5-8-8-8-8-7-7-7-7---------|-----------------8-8-8-8-7-7-7-7-|
|---------------------------------|---------------------------------|
|
| PM-----------------------------------------------------------------
| S S S S S S S S S S S S S S S S   S S S S S S S S S S S S S S S S
|---------------------------------|---------------------------------|
|---------------------------------|---------------------------------|
|---------------------------------|---------------------------------|
|---------------------------------|---------------------------------|
|---------------------------------|---------------------------------|
|-3-3-3-3-3-3-3-3-3-3-3-3-3-3-3-3-|-3-3-3-3-3-3-3-3-3-3-3-3-3-3-3-3-|


  S S S S S S S S S S S S S S S S     S  S  S  S  S  S  S  S  S  S  S  S  S  S  S  S
|---------------------------------|-----------------------------------------------------|
|---------------------------------|-----------------------------------------------------|
|---------------------------------|-----------------------------------------------------|
|---------------------------------|-----------------------------------------------------|
|-8-8-8-8-5-5-5-5-5-5-5-5-8-8-8-8-|---7--7--7--7--4--4--4--4--4--4--4--4--7--7--7--7----|
|---------------------------------|-----------------------------------------------------|
|
|---------------------------------------------------------------------------------|
| S S S S S S S S S S S S S S S S     S  S  S  S  S  S  S  S  S  S  S  S  S  S  S  S
|---------------------------------|-----------------------------------------------------|
|---------------------------------|-----------------------------------------------------|
|---------------------------------|-----------------------------------------------------|
|---------------------------------|-----------------------------------------------------|
|---------------------------------|-----------------------------------------------------|
|-8-8-8-8-8-8-8-8-8-8-8-8-8-8-8-8-|-/11-11-11-11-11-11-11-11-11-11-11-11-11-11-11-11----|


    Gtrs I, II
                                  PM|
    W          W          H.      E E   E E E Q.   Q
||-----------|----------|-------------|-----------------||
||o----------|----------|-------------|----------------o||
||-----------|----------|-------------|-----------------||
||--0--------|-6--------|-5-----------|-4s5-5-4----6----||
||o-0--------|-4--------|-5-------5-5-|-4s5-5-2----6---o||
||--0--------|-6--------|-5-------5-5-|-4s5-5-4----6----||


    Gtrs I, II
         PM----|      PM   PM        PM--------|
    H    E E E E   Q  E Q  E Q    Q  E E E E E E   E E E Q.   Q
||---------------|--------------|----------------|-----------------||
||o--------------|--------------|----------------|----------------o||
||---------------|--------------|----------------|-----------------||
||--0------------|-6----6----6--|-5--------------|-4s5s4-4----6----||
||o-0----0-0-0-0-|-4--4-4--4-4--|-5--5-5-5-5-5-5-|-4s5s4-2----6---o||
||--0----0-0-0-0-|-6--6-6--6-6--|-5--5-5-5-5-5-5-|-4s5s4-4----6----||


  Gtr I
    PM----|   PM--|   PM     PM--|   PM--|
  E S   S E E S S E E E   E  S S E E S S E E E
|-----------------------|----------------------|
|-----------------------|----------------------|
|-----------------------|----------------------|
|-----------------------|----------------------|
|-5---------5-------5---|-5--------5---------6-|
|---0---0-0---0-0-0---0-|----0-0-0---0-0-0-6---|
|
| Gtr II
| E H..                   H.               E E
|-----------------------|----------------------|
|-----------------------|----------------------|
|-----------------------|----------------------|
|-----------------------|----------------------|
|-0---------------------|--------------------6-|
|-0---------------------|------------------6---|


    PM----|   PM--|   PM    PM--|   PM
  E S   S E E S S E E E   E S S E E E Q  E
|-----------------------|--------------------|
|-----------------------|--------------------|
|-----------------------|--------------------|
|-----------------------|--------------------|
|-5---------5-------5---|-5-------5------1---|
|---0---0-0---0-0-0---0-|---0-0-0---0-6--1---|
|
| E H..                   H         E Q  E
|-----------------------|--------------------|
|-----------------------|--------------------|
|-----------------------|--------------------|
|-----------------------|--------------------|
|-5---------------------|----------------1---|
|-----------------------|-------------6--1---|


  Gtrs I, II
  E H..
|----------*|
|----------*|
|----------*|
|----------*|
|-0--------*|
|-0--------*|



Duration Legend
---------------
W - whole; H - half; Q - quarter; E - 8th; S - 16th; T - 32nd; X - 64th; a - acciaccatura
+ - note tied to previous; . - note dotted; .. - note double dotted
Uncapitalized letters represent notes that are staccato (1/2 duration)
Irregular groupings are notated above the duration line
Duration letters will always appear directly above the note/fret number it represents the
duration for.  Duration letters with no fret number below them represent rests.  Multi-
bar rests are notated in the form Wxn, where n is the number of bars to rest for.  Low
melody durations appear below the staff

Tablature Legend
----------------
 h   - hammer-on
 p   - pull-off
 b   - bend
 pb  - pre-bend
 r   - bend release (if no number after the r, then release immediately)
 /\  - slide into or out of (from/to "nowhere")
 s   - legato slide
 S   - shift slide
 - natural harmonic
[n]  - artificial harmonic
n(n) - tapped harmonic
 ~   - vibrato
 tr  - trill
 T   - tap
 TP  - trem. picking
 PM  - palm muting
\n/  - tremolo bar dip; n = amount to dip
 \n  - tremolo bar down
 n/  - tremolo bar up
/n\  - tremolo bar inverted dip
 =   - hold bend; also acts as connecting device for hammers/pulls
 <> - volume swell (louder/softer)
 x   - on rhythm slash represents muted slash
 o   - on rhythm slash represents single note slash

Misc Legend
-----------
 |  - bar
||  - double bar
||o - repeat start
o|| - repeat end
*|  - double bar (ending)
 :  - bar (freetime)
 $  - Segno
 &  - Coda
Tempo markers -  = BPM(8/16=s8/s16), where s8 = swing 8ths, s16 = swing 16ths

Tap to rate this tab
 
# A B C D E F G H I J K L M N O P Q R S T U V W X Y Z