Song name
# A B C D E F G H I J K L M N O P Q R S T U V W X Y Z

Mokoma - Nama Kolme Ovat Yhta tab

Help us improve GuitareTab! Take a short survey!
#----------------------------------PLEASE NOTE---------------------------------#
#This file is the author's own work and represents their interpretation of the #
#song. You may only use this file for private study, scholarship, or research. #
#------------------------------------------------------------------------------#

NÄMÄ KOLME OVAT YHTÄ
As recorded by Mokoma

Transcribed by zesar_1337
	



Gtr I (D A D G B E) - 'Kuisma 6'
Gtr II (D A D G B E) - 'Tuomo'
Gtr III (A D A D G B E) - 'Kuisma 7'

    Q=260
   4/4
    Gtrs I, II
           PM----|      PM----|      PM------------|
    E E Q  E E E E   Q  E E E E Q    E E E E E E E E   Q  Q   H
||-----------------|---------------|-----------------|-----------|
||o----------------|---------------|-----------------|-----------|
||-----------------|---------------|-----------------|-----------|
||--7s8s7----------|---------------|-----------------|-7--8--10--|
||o-5s6s5--0-0-0-0-|-6--0-0-0-0-3--|-0-0-0-0-0-0-0-0-|-5--6---8--|
||---------0-0-0-0-|-6--0-0-0-0-3--|-0-0-0-0-0-0-0-0-|-----------|


  Gtrs I, II
         PM----|      PM----|      PM------------|
  E E Q  E E E E   Q  E E E E Q    E E E E E E E E   Q  Q  H
|----------------|---------------|-----------------|-------------||
|----------------|---------------|-----------------|------------o||
|----------------|---------------|-----------------|-------------||
|-7s8s7----------|---------------|-----------------|-------------||
|-5s6s5--0-0-0-0-|-6--0-0-0-0-3--|-0-0-0-0-0-0-0-0-|-3--2--1----o||
|--------0-0-0-0-|-6--0-0-0-0-3--|-0-0-0-0-0-0-0-0-|-3--2--1-----||


  Gtr I
  Q   H.             W                     W                   W
|------------------|---------------------|-----------------|-----------------|
|------------------|---------------------|-----------------|-----------------|
|------------------|---------------------|-----------------|-----------------|
|------------------|---------------------|-----------------|-----------------|
|-0----------------|---------------------|-----------------|-----------------|
|-0----------------|---------------------|-----------------|-----------------|
|
| Gtr II
| PM|    PM|   PM|         PM|       PM------|   PM|   PM------|   PM|   PM|
|                    |-3-|     |-3-|
| E E E  E E E E E   E E E E E E E E E E   E E E E E E E E   E E E E E E E E
|------------------|---------------------|-----------------|-----------------|
|------------------|---------------------|-----------------|-----------------|
|------------------|---------------------|-----------------|-----------------|
|------------------|---------------------|-----------------|-----------------|
|------------------|-4h5p4-----1h4p1-----|-----------------|-----------------|
|-0-0-7--0-0-8-0-0-|-------0-0-------0-0-|-0-0-7-0-0-8-0-0-|-0-0-3-0-0-6-0-0-|


  Gtr III
  Q   Q   E Q   E   Q   Q       Q   Q     Q   Q   E Q   E   E E E E E E E E
|-----------------|---------------------|-----------------|-----------------|
|-----------------|---------------------|-----------------|-----------------|
|-----------------|---------------------|-----------------|-----------------|
|-----------------|---------------------|-----------------|-----------------|
|-----------------|---------------------|-----------------|-----------------|
|-----2-----3-----|-6-----------3-------|-----2-----3-----|-4-4-4-4-1-1-1-1-|
|-----0-----1-----|-4-----------1-------|-----0-----1-----|-----------------|
|
| Gtr II
| PM|   PM|   PM|         PM|       PM------|   PM|   PM|
|                   |-3-|     |-3-|
| E E E E E E E E   E E E E E E E E E E   E E E E E E E E   E E E E E E E E
|-----------------|---------------------|-----------------|-----------------|
|-----------------|---------------------|-----------------|-----------------|
|-----------------|---------------------|-----------------|-----------------|
|-----------------|---------------------|-----------------|-----------------|
|-----------------|-4h5p4-----1h4p1-----|-----------------|-----------------|
|-0-0-7-0-0-8-0-0-|-------0-0-------0-0-|-0-0-7-0-0-8-0-0-|-4-4-4-4-1-1-1-1-|


    Gtrs I, II
    PM|   PM|   PM|         PM|       PM------|   PM|   PM------|   PM|   PM|
                      |-3-|     |-3-|
    E E E E E E E E   E E E E E E E E E E   E E E E E E E E   E E E E E E E E
||------------------|---------------------|-----------------|------------------|
||o-----------------|---------------------|-----------------|------------------|
||------------------|---------------------|-----------------|------------------|
||------------------|---------------------|-----------------|------------------|
||o-----------------|-4h5p4-----1h4p1-----|-----------------|------------------|
||--0-0-7-0-0-8-0-0-|-------0-0-------0-0-|-0-0-7-0-0-8-0-0-|-0-0-3-0-0-6-0-0--|


  Gtrs I, II
  PM|   PM|   PM|         PM|       PM------|   PM|   PM|
                    |-3-|     |-3-|
  E E E E E E E E   E E E E E E E E E E   E E E E E E E E   E E E E E E E E
|-----------------|---------------------|-----------------|------------------||
|-----------------|---------------------|-----------------|-----------------o||
|-----------------|---------------------|-----------------|------------------||
|-----------------|---------------------|-----------------|------------------||
|-----------------|-4h5p4-----1h4p1-----|-----------------|-----------------o||
|-0-0-7-0-0-8-0-0-|-------0-0-------0-0-|-0-0-7-0-0-8-0-0-|-4-4-4-4-1-1-1-1--||


  Gtrs I, II
         PM----|      PM----|      PM------------|
  E E Q  E E E E   Q  E E E E Q    E E E E E E E E   Q  Q   H
|----------------|---------------|-----------------|-------------|
|----------------|---------------|-----------------|-------------|
|----------------|---------------|-----------------|-------------|
|-7s8s7----------|---------------|-----------------|-7--8--10----|
|-5s6s5--0-0-0-0-|-6--0-0-0-0-3--|-0-0-0-0-0-0-0-0-|-5--6---8----|
|--------0-0-0-0-|-6--0-0-0-0-3--|-0-0-0-0-0-0-0-0-|-------------|


  Gtrs I, II
         PM----|      PM----|      PM------------|
  E E Q  E E E E   Q  E E E E Q    E E E E E E E E   Q  Q  H
|----------------|---------------|-----------------|------------|
|----------------|---------------|-----------------|------------|
|----------------|---------------|-----------------|------------|
|-7s8s7----------|---------------|-----------------|------------|
|-5s6s5--0-0-0-0-|-6--0-0-0-0-3--|-0-0-0-0-0-0-0-0-|-3--2--1----|
|--------0-0-0-0-|-6--0-0-0-0-3--|-0-0-0-0-0-0-0-0-|-3--2--1----|


    Gtrs I, II
    PM|   PM|   PM|         PM|       PM------|   PM|   PM------|   PM|   PM|
                      |-3-|     |-3-|
    E E E E E E E E   E E E E E E E E E E   E E E E E E E E   E E E E E E E E
||------------------|---------------------|-----------------|------------------|
||o-----------------|---------------------|-----------------|------------------|
||------------------|---------------------|-----------------|------------------|
||------------------|---------------------|-----------------|------------------|
||o-----------------|-4h5p4-----1h4p1-----|-----------------|------------------|
||--0-0-7-0-0-8-0-0-|-------0-0-------0-0-|-0-0-7-0-0-8-0-0-|-0-0-3-0-0-6-0-0--|


  Gtrs I, II
  PM|   PM|   PM|         PM|       PM------|   PM|   PM|
                    |-3-|     |-3-|
  E E E E E E E E   E E E E E E E E E E   E E E E E E E E   E E E E E E E E
|-----------------|---------------------|-----------------|------------------||
|-----------------|---------------------|-----------------|-----------------o||
|-----------------|---------------------|-----------------|------------------||
|-----------------|---------------------|-----------------|------------------||
|-----------------|-4h5p4-----1h4p1-----|-----------------|-----------------o||
|-0-0-7-0-0-8-0-0-|-------0-0-------0-0-|-0-0-7-0-0-8-0-0-|-4-4-4-4-1-1-1-1--||


   6/4
    Gtrs I, II
        PM    PM    PM----|       PM    PM    PM----|
    E E E E E E E E E E E E   E E E E E E E E E E E E
||--------------------------|-------------------------|
||o-------------------------|-------------------------|
||--------------------------|-------------------------|
||--------------------------|-------------------------|
||o-------------------------|-------------------------|
||--6p5-0-6p5-0-6p5-0-0-0-0-|-6p5-0-6p5-0-6p5-0-0-0-0-|


      PM    PM    PM----|       PM    PM
  E E E E E E E E E E E E   E E E E E E E E E E E E
|-------------------------|---------------------------||
|-------------------------|--------------------------o||
|-------------------------|---------------------------||
|-------------------------|---------------------------||
|-------------------------|-------------6-6-6-6-6-6--o||
|-6p5-0-6p5-0-6p5-0-0-0-0-|-6p5-0-6p5-0-6-6-6-6-6-6---||


  Gtr I
      PM    PM    PM----|       PM    PM    PM----|
  E E E E E E E E E E E E   E E E E E E E E E E E E
|-------------------------|-------------------------|
|-------------------------|-------------------------|
|-------------------------|-------------------------|
|-------------------------|-------------------------|
|-------------------------|-------------------------|
|-6p5-0-6p5-0-6p5-0-0-0-0-|-6p5-0-6p5-0-6p5-0-0-0-0-|
|
| Gtr II
|     PM    PM    PM----|       PM    PM    PM----|
| E E E E E E E E E E E E   E E E E E E E E E E E E
|-------------------------|-------------------------|
|-------------------------|-------------------------|
|-------------------------|-------------------------|
|-------------------------|-------------------------|
|-6p5-0-6p5-0-6p5-0-------|-6p5-0-6p5-0-6p5-0-------|
|-------------------0-0-0-|-------------------0-0-0-|


      PM    PM    PM----|       PM    PM
  E E E E E E E E E E E E   E E E E E E Q  H
|-------------------------|---------------------|
|-------------------------|---------------------|
|-------------------------|---------------------|
|-------------------------|---------------------|
|-------------------------|-------------6-------|
|-6p5-0-6p5-0-6p5-0-0-0-0-|-6p5-0-6p5-0-6-------|
|
|     PM    PM    PM----|       PM    PM
| E E E E E E E E E E E E   E E E E E E Q  H
|-------------------------|---------------------|
|-------------------------|---------------------|
|-------------------------|---------------------|
|-------------------------|-------------8-------|
|-6p5-0-6p5-0-6p5-0-------|-6p5-0-6p5-0-6-------|
|-------------------0-0-0-|---------------------|


 4/4
  W
|------|
|------|
|------|
|------|
|------|
|------|


  Gtrs I, II
         PM----|      PM----|      PM------------|
  E E Q  E E E E   Q  E E E E Q    E E E E E E E E   Q  Q   H
|----------------|---------------|-----------------|-------------|
|----------------|---------------|-----------------|-------------|
|----------------|---------------|-----------------|-------------|
|-7s8s7----------|---------------|-----------------|-7--8--10----|
|-5s6s5--0-0-0-0-|-6--0-0-0-0-3--|-0-0-0-0-0-0-0-0-|-5--6---8----|
|--------0-0-0-0-|-6--0-0-0-0-3--|-0-0-0-0-0-0-0-0-|-------------|


  Gtrs I, II
         PM----|      PM----|      PM------------|
  E E Q  E E E E   Q  E E E E Q    E E E E E E E E   Q  Q  H
|----------------|---------------|-----------------|------------|
|----------------|---------------|-----------------|------------|
|----------------|---------------|-----------------|------------|
|-7s8s7----------|---------------|-----------------|------------|
|-5s6s5--0-0-0-0-|-6--0-0-0-0-3--|-0-0-0-0-0-0-0-0-|-3--2--1----|
|--------0-0-0-0-|-6--0-0-0-0-3--|-0-0-0-0-0-0-0-0-|-3--2--1----|


    Gtrs I, II
    PM|   PM|   PM|         PM|       PM------|   PM|   PM------|   PM|   PM|
                      |-3-|     |-3-|
    E E E E E E E E   E E E E E E E E E E   E E E E E E E E   E E E E E E E E
||------------------|---------------------|-----------------|------------------|
||o-----------------|---------------------|-----------------|------------------|
||------------------|---------------------|-----------------|------------------|
||------------------|---------------------|-----------------|------------------|
||o-----------------|-4h5p4-----1h4p1-----|-----------------|------------------|
||--0-0-7-0-0-8-0-0-|-------0-0-------0-0-|-0-0-7-0-0-8-0-0-|-0-0-3-0-0-6-0-0--|


  Gtrs I, II
  PM|   PM|   PM|         PM|       PM------|   PM|   PM|
                    |-3-|     |-3-|
  E E E E E E E E   E E E E E E E E E E   E E E E E E E E   E E E E E E E E
|-----------------|---------------------|-----------------|------------------||
|-----------------|---------------------|-----------------|-----------------o||
|-----------------|---------------------|-----------------|------------------||
|-----------------|---------------------|-----------------|------------------||
|-----------------|-4h5p4-----1h4p1-----|-----------------|-----------------o||
|-0-0-7-0-0-8-0-0-|-------0-0-------0-0-|-0-0-7-0-0-8-0-0-|-4-4-4-4-1-1-1-1--||


   6/4
    Gtrs I, II
        PM    PM    PM----|       PM    PM    PM----|
    E E E E E E E E E E E E   E E E E E E E E E E E E
||--------------------------|-------------------------|
||o-------------------------|-------------------------|
||--------------------------|-------------------------|
||--------------------------|-------------------------|
||o-------------------------|-------------------------|
||--6p5-0-6p5-0-6p5-0-0-0-0-|-6p5-0-6p5-0-6p5-0-0-0-0-|


      PM    PM    PM----|       PM    PM
  E E E E E E E E E E E E   E E E E E E E E E E E E
|-------------------------|---------------------------||
|-------------------------|--------------------------o||
|-------------------------|---------------------------||
|-------------------------|---------------------------||
|-------------------------|-------------6-6-6-6-6-6--o||
|-6p5-0-6p5-0-6p5-0-0-0-0-|-6p5-0-6p5-0-6-6-6-6-6-6---||


  Gtr I
      PM    PM    PM----|       PM    PM    PM----|
  E E E E E E E E E E E E   E E E E E E E E E E E E
|-------------------------|-------------------------|
|-------------------------|-------------------------|
|-------------------------|-------------------------|
|-------------------------|-------------------------|
|-------------------------|-------------------------|
|-6p5-0-6p5-0-6p5-0-0-0-0-|-6p5-0-6p5-0-6p5-0-0-0-0-|
|
| Gtr II
|     PM    PM    PM----|       PM    PM    PM----|
| E E E E E E E E E E E E   E E E E E E E E E E E E
|-------------------------|-------------------------|
|-------------------------|-------------------------|
|-------------------------|-------------------------|
|-------------------------|-------------------------|
|-6p5-0-6p5-0-6p5-0-------|-6p5-0-6p5-0-6p5-0-------|
|-------------------0-0-0-|-------------------0-0-0-|


      PM    PM    PM----|       PM    PM
  E E E E E E E E E E E E   E E E E E E E E E E E E
|-------------------------|----------------------------|
|-------------------------|----------------------------|
|-------------------------|----------------------------|
|-------------------------|----------------------------|
|-------------------------|-------------6-6-6-6-6-6----|
|-6p5-0-6p5-0-6p5-0-0-0-0-|-6p5-0-6p5-0-6-6-6-6-6-6----|
|
|     PM    PM    PM----|       PM    PM
| E E E E E E E E E E E E   E E E E E E E E E E E E
|-------------------------|----------------------------|
|-------------------------|----------------------------|
|-------------------------|----------------------------|
|-------------------------|----------------------------|
|-6p5-0-6p5-0-6p5-0-------|-6p5-0-6p5-0-6-6-6-6-6-6----|
|-------------------0-0-0-|-------------6-6-6-6-6-6----|


    Gtrs I, II
              PM--------|
    Q.   Q.   E E E E E E   Q.   Q.   E E E E E E
||------------------------|-----------------------|
||o-----------------------|-----------------------|
||------------------------|-----------------------|
||--8----7----------------|-----------------------|
||o-6----5----------------|-6----5----------------|
||------------0-0-0-0-0-0-|-6----5----0-0-0-0-0-0-|


      PM----------------|       PM----|     PM----|
  E E E E E E E E E E E E   E E E E E E E E E E E E
|-------------------------|----------------------------|
|-------------------------|----------------------------|
|-------------------------|----------------------------|
|-------------------------|----------------------------|
|-------------------------|-------------3h5------------|
|-3h5-0-0-0-0-0-0-0-0-0-0-|-2h3-0-0-0-0-----0-0-0-0----|


  Gtrs I, II
      PM----------------|       PM----------------|
  E E E E E E E E E E E E   E E E E E E E E E E E E
|-------------------------|-------------------------|
|-------------------------|-------------------------|
|-------------------------|-------------------------|
|-------------------------|-------------------------|
|-6p5---------------------|-------------------------|
|-----0-0-0-0-0-0-0-0-0-0-|-6p5-0-0-0-0-0-0-0-0-0-0-|


      PM                        PM----|
  E E E E E E E E E E E E   E E E E E E E E E E E E
|-------------------------|-----------------------------||
|-------------------------|----------------------------o||
|-------------------------|-----------------------------||
|-------------------------|-----------------------------||
|-------------------------|-------------3h5-5-5-5-5----o||
|-3h5-0-0-0-0-0-0-0-0-0-0-|-2h3-0-0-0-0-----------------||


   6/4
    Gtrs I, II
        PM    PM    PM----|       PM    PM    PM----|
    E E E E E E E E E E E E   E E E E E E E E E E E E
||--------------------------|-------------------------|
||o-------------------------|-------------------------|
||--------------------------|-------------------------|
||--------------------------|-------------------------|
||o-------------------------|-------------------------|
||--6p5-0-6p5-0-6p5-0-0-0-0-|-6p5-0-6p5-0-6p5-0-0-0-0-|


      PM    PM    PM----|       PM    PM
  E E E E E E E E E E E E   E E E E E E E E E E E E
|-------------------------|---------------------------||
|-------------------------|--------------------------o||
|-------------------------|---------------------------||
|-------------------------|---------------------------||
|-------------------------|-------------6-6-6-6-6-6--o||
|-6p5-0-6p5-0-6p5-0-0-0-0-|-6p5-0-6p5-0-6-6-6-6-6-6---||


    Gtrs I, II
        PM    PM    PM    PM      PM    PM    PM    PM
    E E E E E E E E E E E E   E E E E E E E E E E E E
||--------------------------|-------------------------|
||o-------------------------|-------------------------|
||--------------------------|-------------------------|
||--------------6p5---------|-------------6p5---------|
||o-------6p5---------6p5---|-------6p5---------6p5---|
||--6p5-0-----0-----0-----0-|-6p5-0-----0-----0-----0-|


      PM    PM    PM    PM      PM    PM
  E E E E E E E E E E E E   E E E E E E E E E E E E
|-------------------------|-----------------------------||
|-------------------------|----------------------------o||
|-------------------------|-----------------------------||
|-------------6p5---------|-----------------------------||
|-------6p5---------6p5---|-------6p5---6-6-6-6-6-6----o||
|-6p5-0-----0-----0-----0-|-6p5-0-----0-6-6-6-6-6-6-----||



Duration Legend
---------------
W - whole; H - half; Q - quarter; E - 8th; S - 16th; T - 32nd; X - 64th; a - acciaccatura
+ - note tied to previous; . - note dotted; .. - note double dotted
Uncapitalized letters represent notes that are staccato (1/2 duration)
Irregular groupings are notated above the duration line
Duration letters will always appear directly above the note/fret number it represents the
duration for.  Duration letters with no fret number below them represent rests.  Multi-
bar rests are notated in the form Wxn, where n is the number of bars to rest for.  Low
melody durations appear below the staff

Tablature Legend
----------------
 h   - hammer-on
 p   - pull-off
 b   - bend
 pb  - pre-bend
 r   - bend release (if no number after the r, then release immediately)
 /\  - slide into or out of (from/to "nowhere")
 s   - legato slide
 S   - shift slide
 - natural harmonic
[n]  - artificial harmonic
n(n) - tapped harmonic
 ~   - vibrato
 tr  - trill
 T   - tap
 TP  - trem. picking
 PM  - palm muting
\n/  - tremolo bar dip; n = amount to dip
 \n  - tremolo bar down
 n/  - tremolo bar up
/n\  - tremolo bar inverted dip
 =   - hold bend; also acts as connecting device for hammers/pulls
 <> - volume swell (louder/softer)
 x   - on rhythm slash represents muted slash
 o   - on rhythm slash represents single note slash

Misc Legend
-----------
 |  - bar
||  - double bar
||o - repeat start
o|| - repeat end
*|  - double bar (ending)
 :  - bar (freetime)
 $  - Segno
 &  - Coda
Tempo markers -  = BPM(8/16=s8/s16), where s8 = swing 8ths, s16 = swing 16ths

Related for Nama Kolme Ovat Yhta tab