Song name
# A B C D E F G H I J K L M N O P Q R S T U V W X Y Z

Mokoma - Sudet Ihmisten Vaatteissa tab

#----------------------------------PLEASE NOTE---------------------------------#
#This file is the author's own work and represents their interpretation of the #
#song. You may only use this file for private study, scholarship, or research. #
#------------------------------------------------------------------------------#

SUDET IHMISTEN VAATTEISSA
As recorded by Mokoma

Transcribed by zesar_1337
	



Gtr I (D A D G B E) - 'Kuisma'
Gtr II (D A D G B E) - 'Tuomo'
Gtr III (D A D G B E) - 'Tuomo2'
Gtr IV (D A D G B E) - 'Kuisma2'
Gtr V (D A D G B E) - 'Melodia1'
Gtr VI (D A D G B E) - 'Melodia2'

  Q=160
 4/4
  Gtr IV
  W          +W           W          +W
|----------|------------|----------|--------|
|----------|------------|----------|--------|
|----------|------------|----------|--------|
|-8--------|-(8)--------|-8--------|-(8)----|
|-6--------|-(6)--------|-5--------|-(5)----|
|-8--------|-(8)--------|-7--------|-(7)----|


  Gtr IV
  W          +W           W          +H     H
|----------|------------|----------|-------------|
|----------|------------|----------|-------------|
|----------|------------|----------|-------------|
|-6--------|-(6)--------|-5--------|-(5)----6----|
|-4--------|-(4)--------|-3--------|-(3)----4----|
|-6--------|-(6)--------|-5--------|-(5)----6----|


  Gtr III
  W          +W           W          +W
|----------|------------|----------|--------|
|----------|------------|----------|--------|
|-8--------|-(8)--------|----------|--------|
|-8--------|-(8)--------|-8--------|-(8)----|
|-6--------|-(6)--------|-8--------|-(8)----|
|----------|------------|-8--------|-(8)----|
|
| Gtr IV
| W          +W           W          +W
|----------|------------|----------|--------|
|----------|------------|----------|--------|
|----------|------------|----------|--------|
|-8--------|-(8)--------|-8--------|-(8)----|
|-6--------|-(6)--------|-8--------|-(8)----|
|-8--------|-(8)--------|-8--------|-(8)----|


  Gtr III
  W          +W           W          +W
|----------|------------|----------|--------|
|----------|------------|----------|--------|
|----------|------------|-5--------|-(5)----|
|-4--------|-(4)--------|-5--------|-(5)----|
|-4--------|-(4)--------|-3--------|-(3)----|
|-4--------|-(4)--------|----------|--------|
|
| Gtr IV
| W          +W           W          +W
|----------|------------|----------|--------|
|----------|------------|----------|--------|
|----------|------------|----------|--------|
|-4--------|-(4)--------|-5--------|-(5)----|
|-4--------|-(4)--------|-3--------|-(3)----|
|-4--------|-(4)--------|-5--------|-(5)----|


  Gtrs I, II
  PM-------------------------------------------------
  S S S S S S S S S S E E S S   E E S S E E S S E E
|-----------------------------|---------------------|
|-----------------------------|---------------------|
|-----------------------------|---------------------|
|-----------------------------|---------------------|
|-----------------------------|---------------------|
|-1-1-1-1-1-1-1-1-1-1-1-1-1-1-|-1-1-1-1-1-1-1-1-1-1-|


 ---------------------------------------|
  S S S S S S S S S S E E S S   E E S S E H
|-----------------------------|----------------|
|-----------------------------|----------------|
|-----------------------------|----------------|
|-----------------------------|----------------|
|-----------------------------|-----------0----|
|-1-1-1-1-1-1-1-1-1-1-1-1-1-1-|-1-1-1-1-1-0----|


  Gtr IV
  W          +W           W          +W
|----------|------------|----------|--------|
|----------|------------|----------|--------|
|----------|------------|----------|--------|
|-8--------|-(8)--------|-8--------|-(8)----|
|-6--------|-(6)--------|-5--------|-(5)----|
|-8--------|-(8)--------|-7--------|-(7)----|


  Gtr IV
  W          +W           W          +H     H
|----------|------------|----------|-------------|
|----------|------------|----------|-------------|
|----------|------------|----------|-------------|
|-6--------|-(6)--------|-5--------|-(5)----6----|
|-4--------|-(4)--------|-3--------|-(3)----4----|
|-6--------|-(6)--------|-5--------|-(5)----6----|


  Gtr III
  W          +W           W          +W
|----------|------------|----------|--------|
|----------|------------|----------|--------|
|-8--------|-(8)--------|----------|--------|
|-8--------|-(8)--------|-8--------|-(8)----|
|-6--------|-(6)--------|-8--------|-(8)----|
|----------|------------|-8--------|-(8)----|
|
| Gtr IV
| W          +W           W          +W
|----------|------------|----------|--------|
|----------|------------|----------|--------|
|----------|------------|----------|--------|
|-8--------|-(8)--------|-8--------|-(8)----|
|-6--------|-(6)--------|-8--------|-(8)----|
|-8--------|-(8)--------|-8--------|-(8)----|


  Gtr III
  W          +W           W          +W
|----------|------------|----------|--------|
|----------|------------|----------|--------|
|----------|------------|-5--------|-(5)----|
|-4--------|-(4)--------|-5--------|-(5)----|
|-4--------|-(4)--------|-3--------|-(3)----|
|-4--------|-(4)--------|----------|--------|
|
| Gtr IV
| W          +W           W          +W
|----------|------------|----------|--------|
|----------|------------|----------|--------|
|----------|------------|----------|--------|
|-4--------|-(4)--------|-5--------|-(5)----|
|-4--------|-(4)--------|-3--------|-(3)----|
|-4--------|-(4)--------|-5--------|-(5)----|


  Gtrs I, II
  PM-------------------------------------------------
  S S S S S S S S S S E E S S   E E S S E E S S E E
|-----------------------------|---------------------|
|-----------------------------|---------------------|
|-----------------------------|---------------------|
|-----------------------------|---------------------|
|-----------------------------|---------------------|
|-1-1-1-1-1-1-1-1-1-1-1-1-1-1-|-1-1-1-1-1-1-1-1-1-1-|
|
| Gtr IV
| W                             W
|-----------------------------|---------------------|
|-----------------------------|---------------------|
|-----------------------------|---------------------|
|-----------------------------|---------------------|
|-----------------------------|---------------------|
|-----------------------------|---------------------|


 ---------------------------------------|
  S S S S S S S S S S E E S S   E E S S E  H
|-----------------------------|-----------------|
|-----------------------------|-----------------|
|-----------------------------|-----------------|
|-----------------------------|-----------------|
|-----------------------------|------------0----|
|-1-1-1-1-1-1-1-1-1-1-1-1-1-1-|-1-1-1-1-1--0----|
|
| W                             H          H
|-----------------------------|-----------------|
|-----------------------------|-----------------|
|-----------------------------|-----------11----|
|-----------------------------|-----------------|
|-----------------------------|------------9----|
|-----------------------------|-----------------|


  Gtrs I, II
             PM           PM---|      PM|
   H     Q   E  E    +E   E  E E  Q   E  E
|-----------------|------------------------|
|-----------------|------------------------|
|-----------------|------------------------|
|--1-----1---1--1-|--(1)--6--6-6--6---6--6-|
|--1-----1---1--1-|--(1)--4--4-4--4---4--4-|
|--1-----1---1--1-|--(1)--6--6-6--6---6--6-|
|
| Gtr V
|  H     Q   E  E    +E   E  Q    Q   E  E
|-----------------|------------------------|
|-----------------|------------------------|
|-11----11--11-11-|-(11)-10-10---10--10-10-|
|-----------------|------------------------|
|--9-----9---9--9-|--(9)--8--8----8---8--8-|
|-----------------|------------------------|
|
| Gtr VI
|  H     Q   E  E    +E   E  Q    Q   E  E
|-----------------|------------------------|
|-----------------|------------------------|
|-15----15--15-15-|-(15)-13-13---13--13-13-|
|-----------------|------------------------|
|-13----13--13-13-|-(13)-11-11---11--11-11-|
|-----------------|------------------------|


             PM           PM---|      PM|
   H     Q   E  E    +E   E  E E  Q   E  E
|-----------------|------------------------|
|-----------------|------------------------|
|-----------------|------------------------|
|--1-----1---1--1-|--(1)--6--6-6--6---6--6-|
|--1-----1---1--1-|--(1)--4--4-4--4---4--4-|
|--1-----1---1--1-|--(1)--6--6-6--6---6--6-|
|
|  H     Q   E  E    +E   E  Q    Q   E  E
|-----------------|------------------------|
|-----------------|------------------------|
|--8-----8---8--8-|--(8)-10-10---10--10-10-|
|-----------------|------------------------|
|--6-----6---6--6-|--(6)--8--8----8---8--8-|
|-----------------|------------------------|
|
|  H     Q   E  E    +E   E  Q    Q   E  E
|-----------------|------------------------|
|-----------------|------------------------|
|-11----11--11-11-|-(11)-13-13---13--13-13-|
|-----------------|------------------------|
|--9-----9---9--9-|--(9)-11-11---11--11-11-|
|-----------------|------------------------|


  Gtrs I, II
             PM           PM---|      PM|
   H     Q   E  E    +E   E  E E  Q   E  E
|-----------------|------------------------|
|-----------------|------------------------|
|-----------------|------------------------|
|--1-----1---1--1-|--(1)--6--6-6--6---6--6-|
|--1-----1---1--1-|--(1)--4--4-4--4---4--4-|
|--1-----1---1--1-|--(1)--6--6-6--6---6--6-|
|
| Gtr V
|  H     Q   E  E    +E   E  Q    Q   E  E
|-----------------|------------------------|
|-----------------|------------------------|
|-11----11--11-11-|-(11)-10-10---10--10-10-|
|-----------------|------------------------|
|--9-----9---9--9-|--(9)--8--8----8---8--8-|
|-----------------|------------------------|
|
| Gtr VI
|  H     Q   E  E    +E   E  Q    Q   E  E
|-----------------|------------------------|
|-----------------|------------------------|
|-15----15--15-15-|-(15)-13-13---13--13-13-|
|-----------------|------------------------|
|-13----13--13-13-|-(13)-11-11---11--11-11-|
|-----------------|------------------------|


             PM           PM---|      PM|
   H     Q   E  E    +E   E  E E  Q   E  E
|-----------------|------------------------|
|-----------------|------------------------|
|-----------------|------------------------|
|--6-----6---6--6-|--(6)--3--3-3--3---3--3-|
|--6-----6---6--6-|--(6)--1--1-1--1---1--1-|
|--6-----6---6--6-|--(6)--3--3-3--3---3--3-|
|
|  H     Q   E  E    +E   E  Q    Q   E  E
|-----------------|------------------------|
|-----------------|------------------------|
|--8-----8---8--8-|--(8)-10--7----7---7--7-|
|-----------------|------------------------|
|--6-----6---6--6-|--(6)--8--5----5---5--5-|
|-----------------|------------------------|
|
|  H     Q   E  E    +E   E  Q    Q   E  E
|-----------------|------------------------|
|-----------------|------------------------|
|-11----11--11-11-|-(11)-10-10---10--10-10-|
|-----------------|------------------------|
|--9-----9---9--9-|--(9)--8--8----8---8--8-|
|-----------------|------------------------|


  Gtrs I, II
             PM           PM---|      PM|
   H     Q   E  E    +E   E  E E  Q   E  E
|-----------------|------------------------|
|-----------------|------------------------|
|-----------------|------------------------|
|--1-----1---1--1-|--(1)--6--6-6--6---6--6-|
|--1-----1---1--1-|--(1)--4--4-4--4---4--4-|
|--1-----1---1--1-|--(1)--6--6-6--6---6--6-|
|
| Gtr V
|  H     Q   E  E    +E   E  Q    Q   E  E
|-----------------|------------------------|
|-----------------|------------------------|
|-11----11--11-11-|-(11)-10-10---10--10-10-|
|-----------------|------------------------|
|--9-----9---9--9-|--(9)--8--8----8---8--8-|
|-----------------|------------------------|
|
| Gtr VI
|  H     Q   E  E    +E   E  Q    Q   E  E
|-----------------|------------------------|
|-----------------|------------------------|
|-15----15--15-15-|-(15)-13-13---13--13-13-|
|-----------------|------------------------|
|-13----13--13-13-|-(13)-11-11---11--11-11-|
|-----------------|------------------------|


             PM           PM---|      PM|
   H     Q   E  E    +E   E  E E  Q   E  E
|-----------------|------------------------|
|-----------------|------------------------|
|-----------------|------------------------|
|--1-----1---1--1-|--(1)--6--6-6--6---6--6-|
|--1-----1---1--1-|--(1)--4--4-4--4---4--4-|
|--1-----1---1--1-|--(1)--6--6-6--6---6--6-|
|
|  H     Q   E  E    +E   E  Q    Q   E  E
|-----------------|------------------------|
|-----------------|------------------------|
|--8-----8---8--8-|--(8)-10-10---10--10-10-|
|-----------------|------------------------|
|--6-----6---6--6-|--(6)--8--8----8---8--8-|
|-----------------|------------------------|
|
|  H     Q   E  E    +E   E  Q    Q   E  E
|-----------------|------------------------|
|-----------------|------------------------|
|-11----11--11-11-|-(11)-13-13---13--13-13-|
|-----------------|------------------------|
|--9-----9---9--9-|--(9)-11-11---11--11-11-|
|-----------------|------------------------|


  Gtrs I, II
             PM           PM---|      PM|
   H     Q   E  E    +E   E  E E  Q   E  E
|-----------------|------------------------|
|-----------------|------------------------|
|-----------------|------------------------|
|--1-----1---1--1-|--(1)--6--6-6--6---6--6-|
|--1-----1---1--1-|--(1)--4--4-4--4---4--4-|
|--1-----1---1--1-|--(1)--6--6-6--6---6--6-|
|
| Gtr V
|  H     Q   E  E    +E   E  Q    Q   E  E
|-----------------|------------------------|
|-----------------|------------------------|
|-11----11--11-11-|-(11)-10-10---10--10-10-|
|-----------------|------------------------|
|--9-----9---9--9-|--(9)--8--8----8---8--8-|
|-----------------|------------------------|
|
| Gtr VI
|  H     Q   E  E    +E   E  Q    Q   E  E
|-----------------|------------------------|
|-----------------|------------------------|
|-15----15--15-15-|-(15)-13-13---13--13-13-|
|-----------------|------------------------|
|-13----13--13-13-|-(13)-11-11---11--11-11-|
|-----------------|------------------------|


             PM           PM---|      PM|
   H     Q   E  E    +E   E  E E  Q   E  E
|-----------------|------------------------|
|-----------------|------------------------|
|-----------------|------------------------|
|--6-----6---6--6-|--(6)--3--3-3--3---3--3-|
|--6-----6---6--6-|--(6)--1--1-1--1---1--1-|
|--6-----6---6--6-|--(6)--3--3-3--3---3--3-|
|
|  H     Q   E  E    +E   E  Q    Q   E  E
|-----------------|------------------------|
|-----------------|------------------------|
|--8-----8---8--8-|--(8)-10-10---10--10-10-|
|-----------------|------------------------|
|--6-----6---6--6-|--(6)--8--8----8---8--8-|
|-----------------|------------------------|
|
|  H     Q   E  E    +E   E  Q    Q   E  E
|-----------------|------------------------|
|-----------------|------------------------|
|-11----11--11-11-|-(11)-13-13---13--13-13-|
|-----------------|------------------------|
|--9-----9---9--9-|--(9)-11-11---11--11-11-|
|-----------------|------------------------|


  Gtrs I, II
  PM-------------------------------------------------
  S S S S S S S S S S E E S S   E E S S E E S S E E
|-----------------------------|---------------------|
|-----------------------------|---------------------|
|-----------------------------|---------------------|
|-----------------------------|---------------------|
|-----------------------------|---------------------|
|-1-1-1-1-1-1-1-1-1-1-1-1-1-1-|-1-1-1-1-1-1-1-1-1-1-|


 ---------------------------------------|
  S S S S S S S S S S E E S S   E E S S E H
|-----------------------------|----------------|
|-----------------------------|----------------|
|-----------------------------|----------------|
|-----------------------------|----------------|
|-----------------------------|-----------0----|
|-1-1-1-1-1-1-1-1-1-1-1-1-1-1-|-1-1-1-1-1-0----|


  Gtr IV
  W          +W           W          +W
|----------|------------|----------|--------|
|----------|------------|----------|--------|
|----------|------------|----------|--------|
|-8--------|-(8)--------|-8--------|-(8)----|
|-6--------|-(6)--------|-5--------|-(5)----|
|-8--------|-(8)--------|-7--------|-(7)----|


  Gtr IV
  W          +W           W          +H     H
|----------|------------|----------|-------------|
|----------|------------|----------|-------------|
|----------|------------|----------|-------------|
|-6--------|-(6)--------|-5--------|-(5)----6----|
|-4--------|-(4)--------|-3--------|-(3)----4----|
|-6--------|-(6)--------|-5--------|-(5)----6----|


  Gtr III
   W           +W            W          +W
|-----------|-------------|-----------|---------------|
|-----------|-------------|-----------|---------------|
|--8--------|--(8)--------|-----------|---------------|
|--8--------|--(8)--------|--8--------|-(8)-----------|
|--6--------|--(6)--------|--8--------|-(8)-----------|
|-----------|-------------|--8--------|-(8)-----------|
|
| Gtr IV
|  W           +W            W          +W
|-----------|-------------|-----------|---------------|
|-----------|-------------|-----------|---------------|
|-----------|-------------|-----------|---------------|
|--8--------|--(8)--------|--8--------|-(8)-----------|
|--6--------|--(6)--------|--8--------|-(8)-----------|
|--8--------|--(8)--------|--8--------|-(8)-----------|
|
| Gtr V
|  W           +W            W           H      H
|-----------|-------------|-----------|---------------|
|-----------|-------------|-----------|---------------|
|-11--------|-(11)--------|-10--------|-10-----11S====|
|-----------|-------------|-----------|---------------|
|--9--------|--(9)--------|--8--------|--8------9S====|
|-----------|-------------|-----------|---------------|


  Gtr III
  W          +W             W          +W
|----------|--------------|----------|--------|
|----------|--------------|----------|--------|
|----------|--------------|-5--------|-(5)----|
|-4--------|-(4)----------|-5--------|-(5)----|
|-4--------|-(4)----------|-3--------|-(3)----|
|-4--------|-(4)----------|----------|--------|
|
| Gtr IV
| W          +W             W          +W
|----------|--------------|----------|--------|
|----------|--------------|----------|--------|
|----------|--------------|----------|--------|
|-4--------|-(4)----------|-5--------|-(5)----|
|-4--------|-(4)----------|-3--------|-(3)----|
|-4--------|-(4)----------|-5--------|-(5)----|
|
| Gtr V
| W          +H      H      W          +W
|----------|--------------|----------|--------|
|----------|--------------|----------|--------|
|-6--------|-(6)S===11S===|=5--------|-(5)----|
|----------|--------------|----------|--------|
|-4--------|-(4)S====9S===|=3--------|-(3)----|
|----------|--------------|----------|--------|


  Gtrs I, II
  PM-------------------------------------------------
  S S S S S S S S S S E E S S   E E S S E E S S E E
|-----------------------------|---------------------|
|-----------------------------|---------------------|
|-----------------------------|---------------------|
|-----------------------------|---------------------|
|-----------------------------|---------------------|
|-1-1-1-1-1-1-1-1-1-1-1-1-1-1-|-1-1-1-1-1-1-1-1-1-1-|
|
| Gtr IV
| W                             W
|-----------------------------|---------------------|
|-----------------------------|---------------------|
|-----------------------------|---------------------|
|-----------------------------|---------------------|
|-----------------------------|---------------------|
|-----------------------------|---------------------|


 ---------------------------------------|
  S S S S S S S S S S E E S S   E E S S E  H
|-----------------------------|-----------------|
|-----------------------------|-----------------|
|-----------------------------|-----------------|
|-----------------------------|-----------------|
|-----------------------------|------------0----|
|-1-1-1-1-1-1-1-1-1-1-1-1-1-1-|-1-1-1-1-1--0----|
|
| W                             H          H
|-----------------------------|-----------------|
|-----------------------------|-----------------|
|-----------------------------|-----------11----|
|-----------------------------|-----------------|
|-----------------------------|------------9----|
|-----------------------------|-----------------|


    Gtrs I, II
               PM           PM---|      PM|
     H     Q   E  E    +E   E  E E  Q   E  E
||------------------|------------------------|
||o-----------------|------------------------|
||------------------|------------------------|
||---1-----1---1--1-|--(1)--6--6-6--6---6--6-|
||o--1-----1---1--1-|--(1)--4--4-4--4---4--4-|
||---1-----1---1--1-|--(1)--6--6-6--6---6--6-|
|
|   Gtr V
|    H     Q   E  E    +E   E  Q    Q   E  E
||------------------|------------------------|
||o-----------------|------------------------|
||--11----11--11-11-|-(11)-10-10---10--10-10-|
||------------------|------------------------|
||o--9-----9---9--9-|--(9)--8--8----8---8--8-|
||------------------|------------------------|
|
|   Gtr VI
|    H     Q   E  E    +E   E  Q    Q   E  E
||------------------|------------------------|
||o-----------------|------------------------|
||--15----15--15-15-|-(15)-13-13---13--13-13-|
||------------------|------------------------|
||o-13----13--13-13-|-(13)-11-11---11--11-11-|
||------------------|------------------------|


             PM           PM---|      PM|
   H     Q   E  E    +E   E  E E  Q   E  E
|-----------------|-------------------------|
|-----------------|-------------------------|
|-----------------|-------------------------|
|--1-----1---1--1-|--(1)--6--6-6--6---6--6--|
|--1-----1---1--1-|--(1)--4--4-4--4---4--4--|
|--1-----1---1--1-|--(1)--6--6-6--6---6--6--|
|
|  H     Q   E  E    +E   E  Q    Q   E  E
|-----------------|-------------------------|
|-----------------|-------------------------|
|--8-----8---8--8-|--(8)-10-10---10--10-10--|
|-----------------|-------------------------|
|--6-----6---6--6-|--(6)--8--8----8---8--8--|
|-----------------|-------------------------|
|
|  H     Q   E  E    +E   E  Q    Q   E  E
|-----------------|-------------------------|
|-----------------|-------------------------|
|-11----11--11-11-|-(11)-13-13---13--13-13--|
|-----------------|-------------------------|
|--9-----9---9--9-|--(9)-11-11---11--11-11--|
|-----------------|-------------------------|


  Gtrs I, II
             PM           PM---|      PM|
   H     Q   E  E    +E   E  E E  Q   E  E
|-----------------|------------------------|
|-----------------|------------------------|
|-----------------|------------------------|
|--1-----1---1--1-|--(1)--6--6-6--6---6--6-|
|--1-----1---1--1-|--(1)--4--4-4--4---4--4-|
|--1-----1---1--1-|--(1)--6--6-6--6---6--6-|
|
| Gtr V
|  H     Q   E  E    +E   E  Q    Q   E  E
|-----------------|------------------------|
|-----------------|------------------------|
|-11----11--11-11-|-(11)-10-10---10--10-10-|
|-----------------|------------------------|
|--9-----9---9--9-|--(9)--8--8----8---8--8-|
|-----------------|------------------------|
|
| Gtr VI
|  H     Q   E  E    +E   E  Q    Q   E  E
|-----------------|------------------------|
|-----------------|------------------------|
|-15----15--15-15-|-(15)-13-13---13--13-13-|
|-----------------|------------------------|
|-13----13--13-13-|-(13)-11-11---11--11-11-|
|-----------------|------------------------|


             PM           PM---|      PM|
   H     Q   E  E    +E   E  E E  Q   E  E
|-----------------|-------------------------||
|-----------------|------------------------o||
|-----------------|-------------------------||
|--6-----6---6--6-|--(6)--3--3-3--3---3--3--||
|--6-----6---6--6-|--(6)--1--1-1--1---1--1-o||
|--6-----6---6--6-|--(6)--3--3-3--3---3--3--||
|
|  H     Q   E  E    +E   E  Q    Q   E  E
|-----------------|-------------------------||
|-----------------|------------------------o||
|--8-----8---8--8-|--(8)-10--7----7---7--7--||
|-----------------|-------------------------||
|--6-----6---6--6-|--(6)--8--5----5---5--5-o||
|-----------------|-------------------------||
|
|  H     Q   E  E    +E   E  Q    Q   E  E
|-----------------|-------------------------||
|-----------------|------------------------o||
|-11----11--11-11-|-(11)-10-10---10--10-10--||
|-----------------|-------------------------||
|--9-----9---9--9-|--(9)--8--8----8---8--8-o||
|-----------------|-------------------------||


  Gtrs I, II
             PM           PM---|      PM|
   H     Q   E  E    +E   E  E E  Q   E  E
|-----------------|------------------------|
|-----------------|------------------------|
|-----------------|------------------------|
|--1-----1---1--1-|--(1)--6--6-6--6---6--6-|
|--1-----1---1--1-|--(1)--4--4-4--4---4--4-|
|--1-----1---1--1-|--(1)--6--6-6--6---6--6-|
|
| Gtrs V, VI
|  H     Q   E  E    +E   E  Q    Q   E  E
|-----------------|------------------------|
|-----------------|------------------------|
|-11----11--11-11-|-(11)-13-13---13--13-13-|
|-----------------|------------------------|
|--9-----9---9--9-|--(9)-11-11---11--11-11-|
|-----------------|------------------------|


          PM         PM---|      PM|
  H    Q  E E   +E   E  E E  Q   E  E
|-------------|-----------------------|
|-------------|-----------------------|
|-------------|-----------------------|
|-1----1--1-1-|-(1)--6--6-6--6---6--6-|
|-1----1--1-1-|-(1)--4--4-4--4---4--4-|
|-1----1--1-1-|-(1)--6--6-6--6---6--6-|
|
| H    Q  E E   +E   E  Q    Q   E  E
|-------------|-----------------------|
|-------------|-----------------------|
|-8----8--8-8-|-(8)-13-13---13--13-13-|
|-------------|-----------------------|
|-6----6--6-6-|-(6)-11-11---11--11-11-|
|-------------|-----------------------|


  Gtrs I, II
             PM           PM---|      PM|
   H     Q   E  E    +E   E  E E  Q   E  E
|-----------------|------------------------|
|-----------------|------------------------|
|-----------------|------------------------|
|--1-----1---1--1-|--(1)--6--6-6--6---6--6-|
|--1-----1---1--1-|--(1)--4--4-4--4---4--4-|
|--1-----1---1--1-|--(1)--6--6-6--6---6--6-|
|
| Gtrs V, VI
|  H     Q   E  E    +E   E  Q    Q   E  E
|-----------------|------------------------|
|-----------------|------------------------|
|-11----11--11-11-|-(11)-13-13---13--13-13-|
|-----------------|------------------------|
|--9-----9---9--9-|--(9)-11-11---11--11-11-|
|-----------------|------------------------|


          PM         PM---|      PM|
  H    Q  E E   +E   E  E E  Q   E  E
|-------------|-----------------------|
|-------------|-----------------------|
|-------------|-----------------------|
|-6----6--6-6-|-(6)--3--3-3--3---3--3-|
|-6----6--6-6-|-(6)--1--1-1--1---1--1-|
|-6----6--6-6-|-(6)--3--3-3--3---3--3-|
|
| H    Q  E E   +E   E  Q    Q   E  E
|-------------|-----------------------|
|-------------|-----------------------|
|-8----8--8-8-|-(8)-13-10---10--10-10-|
|-------------|-----------------------|
|-6----6--6-6-|-(6)-11--8----8---8--8-|
|-------------|-----------------------|


  Gtrs I, II
             PM           PM---|      PM|
   H     Q   E  E    +E   E  E E  Q   E  E
|-----------------|------------------------|
|-----------------|------------------------|
|-----------------|------------------------|
|--1-----1---1--1-|--(1)--6--6-6--6---6--6-|
|--1-----1---1--1-|--(1)--4--4-4--4---4--4-|
|--1-----1---1--1-|--(1)--6--6-6--6---6--6-|
|
| Gtrs V, VI
|  H     Q   E  E    +E   E  Q    Q   E  E
|-----------------|------------------------|
|-----------------|------------------------|
|-11----11--11-11-|-(11)-13-13---13--13-13-|
|-----------------|------------------------|
|--9-----9---9--9-|--(9)-11-11---11--11-11-|
|-----------------|------------------------|


          PM         PM---|      PM|
  H    Q  E E   +E   E  E E  Q   E  E
|-------------|-----------------------|
|-------------|-----------------------|
|-------------|-----------------------|
|-1----1--1-1-|-(1)--6--6-6--6---6--6-|
|-1----1--1-1-|-(1)--4--4-4--4---4--4-|
|-1----1--1-1-|-(1)--6--6-6--6---6--6-|
|
| H    Q  E E   +E   E  Q    Q   E  E
|-------------|-----------------------|
|-------------|-----------------------|
|-8----8--8-8-|-(8)-13-13---13--13-13-|
|-------------|-----------------------|
|-6----6--6-6-|-(6)-11-11---11--11-11-|
|-------------|-----------------------|


  Gtrs I, II
             PM           PM---|      PM|            PM         PM---|
   H     Q   E  E    +E   E  E E  Q   E  E   H    Q  E E   +E   E  E E  Q   Q
|-----------------|------------------------|-------------|---------------------|
|-----------------|------------------------|-------------|---------------------|
|-----------------|------------------------|-------------|---------------------|
|--1-----1---1--1-|--(1)--6--6-6--6---6--6-|-6----6--6-6-|-(6)--3--3-3--3---3--|
|--1-----1---1--1-|--(1)--4--4-4--4---4--4-|-6----6--6-6-|-(6)--1--1-1--1---1--|
|--1-----1---1--1-|--(1)--6--6-6--6---6--6-|-6----6--6-6-|-(6)--3--3-3--3---3--|
|
| Gtrs V, VI
|  H     Q   E  E    +E   E  Q    Q   E  E   H    Q  E E   +E   E  Q    Q   Q
|-----------------|------------------------|-------------|---------------------|
|-----------------|------------------------|-------------|---------------------|
|-11----11--11-11-|-(11)-13-13---13--13-13-|-8----8--8-8-|-(8)-13-10---10--10--|
|-----------------|------------------------|-------------|---------------------|
|--9-----9---9--9-|--(9)-11-11---11--11-11-|-6----6--6-6-|-(6)-11--8----8---8--|
|-----------------|------------------------|-------------|---------------------|


  Gtrs I, II
  PM-------------------------------------------------
  S S S S S S S S S S E E S S   E E S S E E S S E E
|-----------------------------|---------------------|
|-----------------------------|---------------------|
|-----------------------------|---------------------|
|-----------------------------|---------------------|
|-----------------------------|---------------------|
|-1-1-1-1-1-1-1-1-1-1-1-1-1-1-|-1-1-1-1-1-1-1-1-1-1-|


 -------------------------------------------------|
  S S S S S S S S S S E E S S   E E S S E E S S E E
|-----------------------------|------------------------|
|-----------------------------|------------------------|
|-----------------------------|------------------------|
|-----------------------------|------------------------|
|-----------------------------|------------------------|
|-1-1-1-1-1-1-1-1-1-1-1-1-1-1-|-1-1-1-1-1-1-1-1-1-1----|


  Gtrs I, II
  PM-------------------------------------------------
  S S S S S S S S S S E E S S   E E S S E E S S E E
|-----------------------------|---------------------|
|-----------------------------|---------------------|
|-----------------------------|---------------------|
|-----------------------------|---------------------|
|-----------------------------|---------------------|
|-1-1-1-1-1-1-1-1-1-1-1-1-1-1-|-1-1-1-1-1-1-1-1-1-1-|


 ---------------------------------------|
  S S S S S S S S S S E E S S   E E S S E H
|-----------------------------|----------------|
|-----------------------------|----------------|
|-----------------------------|----------------|
|-----------------------------|----------------|
|-----------------------------|-----------0----|
|-1-1-1-1-1-1-1-1-1-1-1-1-1-1-|-1-1-1-1-1-0----|


    W          W          W          W
||-----------|----------|----------|-------||
||o----------|----------|----------|------o||
||-----------|----------|----------|-------||
||-----------|----------|----------|-------||
||o----------|----------|----------|------o||
||-----------|----------|----------|-------||


    Gtrs I, II
               PM           PM---|      PM|
     H     Q   E  E    +E   E  E E  Q   E  E
||------------------|------------------------|
||o-----------------|------------------------|
||------------------|------------------------|
||---1-----1---1--1-|--(1)--6--6-6--6---6--6-|
||o--1-----1---1--1-|--(1)--4--4-4--4---4--4-|
||---1-----1---1--1-|--(1)--6--6-6--6---6--6-|
|
|   Gtrs V, VI
|    H     Q   E  E    +E   E  Q    Q   E  E
||------------------|------------------------|
||o-----------------|------------------------|
||--11----11--11-11-|-(11)-13-13---13--13-13-|
||------------------|------------------------|
||o--9-----9---9--9-|--(9)-11-11---11--11-11-|
||------------------|------------------------|


          PM         PM---|      PM|
  H    Q  E E   +E   E  E E  Q   E  E
|-------------|------------------------|
|-------------|------------------------|
|-------------|------------------------|
|-1----1--1-1-|-(1)--6--6-6--6---6--6--|
|-1----1--1-1-|-(1)--4--4-4--4---4--4--|
|-1----1--1-1-|-(1)--6--6-6--6---6--6--|
|
| H    Q  E E   +E   E  Q    Q   E  E
|-------------|------------------------|
|-------------|------------------------|
|-8----8--8-8-|-(8)-13-13---13--13-13--|
|-------------|------------------------|
|-6----6--6-6-|-(6)-11-11---11--11-11--|
|-------------|------------------------|


  Gtrs I, II
             PM           PM---|      PM|
   H     Q   E  E    +E   E  E E  Q   E  E
|-----------------|------------------------|
|-----------------|------------------------|
|-----------------|------------------------|
|--1-----1---1--1-|--(1)--6--6-6--6---6--6-|
|--1-----1---1--1-|--(1)--4--4-4--4---4--4-|
|--1-----1---1--1-|--(1)--6--6-6--6---6--6-|
|
| Gtrs V, VI
|  H     Q   E  E    +E   E  Q    Q   E  E
|-----------------|------------------------|
|-----------------|------------------------|
|-11----11--11-11-|-(11)-13-13---13--13-13-|
|-----------------|------------------------|
|--9-----9---9--9-|--(9)-11-11---11--11-11-|
|-----------------|------------------------|


          PM         PM---|      PM|
  H    Q  E E   +E   E  E E  Q   E  E  3x
|-------------|------------------------||
|-------------|-----------------------o||
|-------------|------------------------||
|-6----6--6-6-|-(6)--3--3-3--3---3--3--||
|-6----6--6-6-|-(6)--1--1-1--1---1--1-o||
|-6----6--6-6-|-(6)--3--3-3--3---3--3--||
|
| H    Q  E E   +E   E  Q    Q   E  E  3x
|-------------|------------------------||
|-------------|-----------------------o||
|-8----8--8-8-|-(8)-13-10---10--10-10--||
|-------------|------------------------||
|-6----6--6-6-|-(6)-11--8----8---8--8-o||
|-------------|------------------------||


  Gtrs I, II
             PM           PM---|      PM|
   H     Q   E  E    +E   E  E E  Q   E  E
|-----------------|------------------------|
|-----------------|------------------------|
|-----------------|------------------------|
|--1-----1---1--1-|--(1)--6--6-6--6---6--6-|
|--1-----1---1--1-|--(1)--4--4-4--4---4--4-|
|--1-----1---1--1-|--(1)--6--6-6--6---6--6-|
|
| Gtrs V, VI
|  H     Q   E  E    +E   E  Q    Q   E  E
|-----------------|------------------------|
|-----------------|------------------------|
|-11----11--11-11-|-(11)-13-13---13--13-13-|
|-----------------|------------------------|
|--9-----9---9--9-|--(9)-11-11---11--11-11-|
|-----------------|------------------------|


          PM         PM---|      PM|
  H    Q  E E   +E   E  E E  Q   E  E
|-------------|-----------------------|
|-------------|-----------------------|
|-------------|-----------------------|
|-1----1--1-1-|-(1)--6--6-6--6---6--6-|
|-1----1--1-1-|-(1)--4--4-4--4---4--4-|
|-1----1--1-1-|-(1)--6--6-6--6---6--6-|
|
| H    Q  E E   +E   E  Q    Q   E  E
|-------------|-----------------------|
|-------------|-----------------------|
|-8----8--8-8-|-(8)-13-13---13--13-13-|
|-------------|-----------------------|
|-6----6--6-6-|-(6)-11-11---11--11-11-|
|-------------|-----------------------|


  Gtrs I, II
             PM           PM---|      PM|            PM         PM---|
   H     Q   E  E    +E   E  E E  Q   E  E   H    Q  E E   +E   E  E E  Q   Q
|-----------------|------------------------|-------------|---------------------|
|-----------------|------------------------|-------------|---------------------|
|-----------------|------------------------|-------------|---------------------|
|--1-----1---1--1-|--(1)--6--6-6--6---6--6-|-6----6--6-6-|-(6)--3--3-3--3---3--|
|--1-----1---1--1-|--(1)--4--4-4--4---4--4-|-6----6--6-6-|-(6)--1--1-1--1---1--|
|--1-----1---1--1-|--(1)--6--6-6--6---6--6-|-6----6--6-6-|-(6)--3--3-3--3---3--|
|
| Gtrs V, VI
|  H     Q   E  E    +E   E  Q    Q   E  E   H    Q  E E   +E   E  Q    Q   Q
|-----------------|------------------------|-------------|---------------------|
|-----------------|------------------------|-------------|---------------------|
|-11----11--11-11-|-(11)-13-13---13--13-13-|-8----8--8-8-|-(8)-13-10---10--10--|
|-----------------|------------------------|-------------|---------------------|
|--9-----9---9--9-|--(9)-11-11---11--11-11-|-6----6--6-6-|-(6)-11--8----8---8--|
|-----------------|------------------------|-------------|---------------------|


  Gtrs I, II
  PM-------------------------------------------------
  S S S S S S S S S S E E S S   E E S S E E S S E E
|-----------------------------|---------------------|
|-----------------------------|---------------------|
|-----------------------------|---------------------|
|-----------------------------|---------------------|
|-----------------------------|---------------------|
|-1-1-1-1-1-1-1-1-1-1-1-1-1-1-|-1-1-1-1-1-1-1-1-1-1-|


 -------------------------------------------------|
  S S S S S S S S S S E E S S   E E S S E E S S E E
|-----------------------------|------------------------|
|-----------------------------|------------------------|
|-----------------------------|------------------------|
|-----------------------------|------------------------|
|-----------------------------|------------------------|
|-1-1-1-1-1-1-1-1-1-1-1-1-1-1-|-1-1-1-1-1-1-1-1-1-1----|


  Gtrs I, II
  PM-------------------------------------------------
  S S S S S S S S S S E E S S   E E S S E E S S E E
|-----------------------------|---------------------|
|-----------------------------|---------------------|
|-----------------------------|---------------------|
|-----------------------------|---------------------|
|-----------------------------|---------------------|
|-1-1-1-1-1-1-1-1-1-1-1-1-1-1-|-1-1-1-1-1-1-1-1-1-1-|


 ---------------------------------------|
  S S S S S S S S S S E E S S   E E S S E H
|-----------------------------|----------------|
|-----------------------------|----------------|
|-----------------------------|----------------|
|-----------------------------|----------------|
|-----------------------------|-----------0----|
|-1-1-1-1-1-1-1-1-1-1-1-1-1-1-|-1-1-1-1-1-0----|


  Gtrs I, II
  W
|------*|
|------*|
|------*|
|-1----*|
|-1----*|
|-1----*|



Duration Legend
---------------
W - whole; H - half; Q - quarter; E - 8th; S - 16th; T - 32nd; X - 64th; a - acciaccatura
+ - note tied to previous; . - note dotted; .. - note double dotted
Uncapitalized letters represent notes that are staccato (1/2 duration)
Irregular groupings are notated above the duration line
Duration letters will always appear directly above the note/fret number it represents the
duration for.  Duration letters with no fret number below them represent rests.  Multi-
bar rests are notated in the form Wxn, where n is the number of bars to rest for.  Low
melody durations appear below the staff

Tablature Legend
----------------
 h   - hammer-on
 p   - pull-off
 b   - bend
 pb  - pre-bend
 r   - bend release (if no number after the r, then release immediately)
 /\  - slide into or out of (from/to "nowhere")
 s   - legato slide
 S   - shift slide
 - natural harmonic
[n]  - artificial harmonic
n(n) - tapped harmonic
 ~   - vibrato
 tr  - trill
 T   - tap
 TP  - trem. picking
 PM  - palm muting
\n/  - tremolo bar dip; n = amount to dip
 \n  - tremolo bar down
 n/  - tremolo bar up
/n\  - tremolo bar inverted dip
 =   - hold bend; also acts as connecting device for hammers/pulls
 <> - volume swell (louder/softer)
 x   - on rhythm slash represents muted slash
 o   - on rhythm slash represents single note slash

Misc Legend
-----------
 |  - bar
||  - double bar
||o - repeat start
o|| - repeat end
*|  - double bar (ending)
 :  - bar (freetime)
 $  - Segno
 &  - Coda
Tempo markers -  = BPM(8/16=s8/s16), where s8 = swing 8ths, s16 = swing 16ths

Tap to rate this tab
 
# A B C D E F G H I J K L M N O P Q R S T U V W X Y Z