Song name
# A B C D E F G H I J K L M N O P Q R S T U V W X Y Z

Mokoma - Uni Saa Tulla tab

#----------------------------------PLEASE NOTE---------------------------------#
#This file is the author's own work and represents their interpretation of the #
#song. You may only use this file for private study, scholarship, or research. #
#------------------------------------------------------------------------------#

UNI SAA TULLA
As recorded by Mokoma

Transcribed by zesar_1337
	



Gtr I (D A D G B E) - 'Kuisma'
Gtr II (D A D G B E) - 'Tuomo'
Gtr III (D A D G B E) - 'Melodia'
Gtr IV (D A D G B E) - 'Säkeistö'

  Q=145
 4/4
  Gtrs I, II
  E   E E E E E E  E    E E  E   E E E E  E
|---------------------|---------------------|
|---------------------|---------------------|
|---------------------|---------------------|
|-4---4-4-4-4-4-4--4--|-4-4--4---4-4-4-4--4-|
|-5---5-5-5-5-5-5--5--|-5-5--5---5-5-5-5--5-|
|-0---0-0-0-0-0-0--0--|-0-0--0---0-0-0-0--0-|
|
| Gtr III
| H..             +E    Q   +E   H        E
|---------------------|---------------------|
|-7---------------(7)S|=9---(9)S10-------10-|
|---------------------|---------------------|
|-4---------------(4)S|=6---(6)S=7--------7-|
|---------------------|---------------------|
|---------------------|---------------------|


   E   E  E E  E  E E E    E  E E E E E E E
|-----------------------|--------------------|
|-----------------------|--------------------|
|-----------------------|--------------------|
|--7---7--7-7--7--7-7-7-|--7--7-7-7-7-7-7-7--|
|--4---4--4-4--4--4-4-4-|--4--4-4-4-4-4-4-4--|
|--4---4--4-4--4--4-4-4-|--4--4-4-4-4-4-4-4--|
|
|  E  +E  E E +E  Q   E   +W
|-----------------------|--------------------|
|-10-(10)S9-7-(7)S5-----|--------------------|
|---------------------6-|-(6)----------------|
|--7--(7)S6-4-(4)s2-----|--------------------|
|---------------------4-|-(4)----------------|
|-----------------------|--------------------|


  Gtrs I, II
  E   E E E E E E  E    E  E E  E  E E E E
|---------------------|--------------------|
|---------------------|--------------------|
|---------------------|--------------------|
|-4---4-4-4-4-4-4--4--|-4--4-4--4--4-4-4-4-|
|-5---5-5-5-5-5-5--5--|-5--5-5--5--5-5-5-5-|
|-0---0-0-0-0-0-0--0--|-0--0-0--0--0-0-0-0-|
|
| Gtr III
| H..             +E    Q.     +E  H
|---------------------|--------------------|
|-7---------------(7)S|=5------(5)s7-------|
|---------------------|--------------------|
|-4---------------(4)S|=2------(2)s4-------|
|---------------------|--------------------|
|---------------------|--------------------|


  E E E E E E E E    E  E E E E E E E
|-----------------|-------------------|
|-----------------|-------------------|
|-----------------|-------------------|
|-7-7-7-7-7-7-7-7-|--7--7-7-7-7-7-7-7-|
|-4-4-4-4-4-4-4-4-|--4--4-4-4-4-4-4-4-|
|-4-4-4-4-4-4-4-4-|--4--4-4-4-4-4-4-4-|
|
| W                 +W
|-----------------|-------------------|
|-----------------|-------------------|
|-6---------------|-(6)---------------|
|-----------------|-------------------|
|-4---------------|-(4)---------------|
|-----------------|-------------------|


  Gtrs I, II
  E   E E E E E E  E    E E E E  E     E  E E
|---------------------|-----------------------|
|---------------------|-----------------------|
|---------------------|-----------------------|
|-4---4-4-4-4-4-4--4--|-4-4-4-4--4-----4--4-4-|
|-5---5-5-5-5-5-5--5--|-5-5-5-5--5-----5--5-5-|
|-0---0-0-0-0-0-0--0--|-0-0-0-0--0-----0--0-0-|
|
| Gtr III
| H..             +E    H        S  S  E  Q
|---------------------|-----------------------|
|-7---------------(7)S|=9-------10s14-14-14---|
|---------------------|-----------------------|
|-4---------------(4)S|=6--------7s11-11-11---|
|---------------------|-----------------------|
|---------------------|-----------------------|


   E   E   E  E   E   E E  E     E  E E  E E E E E
|----------------------------|----------------------|
|----------------------------|----------------------|
|----------------------------|----------------------|
|--7---7---7--7---7---7-7--7-|---7--7-7--7-7-7-7-7--|
|--4---4---4--4---4---4-4--4-|---4--4-4--4-4-4-4-4--|
|--4---4---4--4---4---4-4--4-|---4--4-4--4-4-4-4-4--|
|
|  E  +E   E  E  +E   Q    E    +E  E H.
|----------------------------|----------------------|
|-14-(14)S12-10-(10)s12---10-|-(10)S7-7-------------|
|----------------------------|----------------------|
|-11-(11)S=9--7--(7)s=9----7-|--(7)S4-4-------------|
|----------------------------|----------------------|
|----------------------------|----------------------|


  Gtrs I, II
  E   E E E E E E  E    E  E E  E  E  E E  E    W          +W
|---------------------|-----------------------|----------|--------|
|---------------------|-----------------------|----------|--------|
|---------------------|-----------------------|----------|--------|
|-4---4-4-4-4-4-4--4--|-4--4-4--4--4--4-4--4--|-6--------|-(6)----|
|-5---5-5-5-5-5-5--5--|-5--5-5--5--5--5-5--5--|-4--------|-(4)----|
|-0---0-0-0-0-0-0--0--|-0--0-0--0--0--0-0--0--|-4--------|-(4)----|
|
| Gtr III
| H..             +E    Q.     +E  Q.     +E    W          +W
|---------------------|-----------------------|----------|--------|
|-7---------------(7)S|=5------(5)S7------(7)S|=9--------|-(9)----|
|---------------------|-----------------------|----------|--------|
|-4---------------(4)S|=2------(2)S4------(4)S|=6--------|-(6)----|
|---------------------|-----------------------|----------|--------|
|---------------------|-----------------------|----------|--------|


  Gtr IV
  Q  E E E E E E   +E  E E E E E E E   Q  E E E E E E   +E  E E E E E E E
|-0--0-0-0-0-0-0-|-(0)-0-0-0-0-0-0-0-|-0--0-0-0-0-0-0-|-(0)-0-0-0-0-0-0-0-|
|-0--0-0-0-0-0-1-|-(1)-1-1-1-1-1-1-1-|-0--0-0-0-0-0-1-|-(1)-1-1-1-1-1-1-1-|
|-2--2-2-2-2-2-2-|-(2)-2-2-2-2-2-2-2-|-2--2-2-2-2-2-2-|-(2)-2-2-2-2-2-2-2-|
|-2--2-2-2-2-2-2-|-(2)-2-2-2-2-2-2-2-|-2--2-2-2-2-2-2-|-(2)-2-2-2-2-2-2-2-|
|-0--0-0-0-0-0-0-|-(0)-0-0-0-0-0-0-0-|-0--0-0-0-0-0-0-|-(0)-0-0-0-0-0-0-0-|
|----------------|-------------------|----------------|-------------------|


  Gtr IV
  Q  E E E E E E   +E  E E E E E E E   Q  E E E E E E   +E  E E E E E E E
|----------------|-------------------|----------------|-------------------|
|----------------|-------------------|----------------|-------------------|
|-2--2-2-2-2-2-2-|-(2)-2-2-2-2-2-2-2-|-2--2-2-2-2-2-1-|-(1)-1-1-1-1-1-1-1-|
|-4--4-4-4-4-4-4-|-(4)-4-4-4-4-4-4-4-|-3--3-3-3-3-3-2-|-(2)-2-2-2-2-2-2-2-|
|-4--4-4-4-4-4-4-|-(4)-4-4-4-4-4-4-4-|-3--3-3-3-3-3-2-|-(2)-2-2-2-2-2-2-2-|
|-4--4-4-4-4-4-4-|-(4)-4-4-4-4-4-4-4-|-3--3-3-3-3-3-2-|-(2)-2-2-2-2-2-2-2-|


  Gtr IV
  Q   E E E E E E   +E  E E E E E E E   Q   E E E E E E   +E  E E E E E E E
|-0---0-0-0-0-0-0-|-(0)-0-0-0-0-0-0-0-|-0---0-0-0-0-0-0-|-(0)-0-0-0-0-0-0-0-|
|-0---0-0-0-0-0-1-|-(1)-1-1-1-1-1-1-1-|-0---0-0-0-0-0-1-|-(1)-1-1-1-1-1-1-1-|
|-2---2-2-2-2-2-2-|-(2)-2-2-2-2-2-2-2-|-2---2-2-2-2-2-2-|-(2)-2-2-2-2-2-2-2-|
|-2---2-2-2-2-2-2-|-(2)-2-2-2-2-2-2-2-|-2---2-2-2-2-2-2-|-(2)-2-2-2-2-2-2-2-|
|-0---0-0-0-0-0-0-|-(0)-0-0-0-0-0-0-0-|-0---0-0-0-0-0-0-|-(0)-0-0-0-0-0-0-0-|
|-----------------|-------------------|-----------------|-------------------|
|
| Gtrs I, II
| PM----------------------------------------------------------------------|
| E E E E E E E E    E  E E E E E E E   E E E E E E E E    E  E E E E E E E
|-----------------|-------------------|-----------------|-------------------|
|-----------------|-------------------|-----------------|-------------------|
|-----------------|-------------------|-----------------|-------------------|
|-2-2-2-2-2-2-2-2-|--2--2-2-2-2-2-2-2-|-2-2-2-2-2-2-2-2-|--2--2-2-2-2-2-2-2-|
|-0-0-0-0-0-0-0-0-|--0--0-0-0-0-0-0-0-|-0-0-0-0-0-0-0-0-|--0--0-0-0-0-0-0-0-|
|-2-2-2-2-2-2-2-2-|--2--2-2-2-2-2-2-2-|-2-2-2-2-2-2-2-2-|--2--2-2-2-2-2-2-2-|


  Gtr IV
  Q   E E E E E E   +E  E E E E E E E   Q   E E E E E E   +E  E E E E E E E
|-----------------|-------------------|-----------------|-------------------|
|-----------------|-------------------|-----------------|-------------------|
|-2---2-2-2-2-2-2-|-(2)-2-2-2-2-2-2-2-|-2---2-2-2-2-2-1-|-(1)-1-1-1-1-1-1-1-|
|-4---4-4-4-4-4-4-|-(4)-4-4-4-4-4-4-4-|-3---3-3-3-3-3-2-|-(2)-2-2-2-2-2-2-2-|
|-4---4-4-4-4-4-4-|-(4)-4-4-4-4-4-4-4-|-3---3-3-3-3-3-2-|-(2)-2-2-2-2-2-2-2-|
|-4---4-4-4-4-4-4-|-(4)-4-4-4-4-4-4-4-|-3---3-3-3-3-3-2-|-(2)-2-2-2-2-2-2-2-|
|
| Gtrs I, II
| PM--------------------------------------------------------------|
| E E E E E E E E    E  E E E E E E E   E E E E E E E E    E  E E E E E E E
|-----------------|-------------------|-----------------|-------------------|
|-----------------|-------------------|-----------------|-------------------|
|-----------------|-------------------|-----------------|-------------------|
|-4-4-4-4-4-4-4-4-|--4--4-4-4-4-4-4-4-|-3-3-3-3-3-3-3-2-|--2--2-2-2-2-2-2-2-|
|-4-4-4-4-4-4-4-4-|--4--4-4-4-4-4-4-4-|-3-3-3-3-3-3-3-2-|--2--2-2-2-2-2-2-2-|
|-4-4-4-4-4-4-4-4-|--4--4-4-4-4-4-4-4-|-3-3-3-3-3-3-3-2-|--2--2-2-2-2-2-2-2-|


    Gtrs I, II
    E E E E E E E E   E E E E E E E E   E E E E E E E E   E E E E E E E E   4x
||------------------|-----------------|-----------------|-------------------||
||o-----------------|-----------------|-----------------|------------------o||
||------------------|-----------------|-----------------|-------------------||
||--4-4-4-4-4-4-4-4-|-4-4-4-4-4-4-4-4-|-7-7-7-7-7-7-7-7-|-7-7-7-7-7-7-7-7---||
||o-5-5-5-5-5-5-5-5-|-5-5-5-5-5-5-5-5-|-4-4-4-4-4-4-4-4-|-4-4-4-4-4-4-4-4--o||
||--0-0-0-0-0-0-0-0-|-0-0-0-0-0-0-0-0-|-4-4-4-4-4-4-4-4-|-4-4-4-4-4-4-4-4---||


  Gtr IV
  Q   E E E E E E   +E  E E E E E E E   Q   E E E E E E   +E  E E E E E E E
|-0---0-0-0-0-0-0-|-(0)-0-0-0-0-0-0-0-|-0---0-0-0-0-0-0-|-(0)-0-0-0-0-0-0-0-|
|-0---0-0-0-0-0-1-|-(1)-1-1-1-1-1-1-1-|-0---0-0-0-0-0-1-|-(1)-1-1-1-1-1-1-1-|
|-2---2-2-2-2-2-2-|-(2)-2-2-2-2-2-2-2-|-2---2-2-2-2-2-2-|-(2)-2-2-2-2-2-2-2-|
|-2---2-2-2-2-2-2-|-(2)-2-2-2-2-2-2-2-|-2---2-2-2-2-2-2-|-(2)-2-2-2-2-2-2-2-|
|-0---0-0-0-0-0-0-|-(0)-0-0-0-0-0-0-0-|-0---0-0-0-0-0-0-|-(0)-0-0-0-0-0-0-0-|
|-----------------|-------------------|-----------------|-------------------|
|
| Gtrs I, II
| PM----------------------------------------------------------------------|
| E E E E E E E E    E  E E E E E E E   E E E E E E E E    E  E E E E E E E
|-----------------|-------------------|-----------------|-------------------|
|-----------------|-------------------|-----------------|-------------------|
|-----------------|-------------------|-----------------|-------------------|
|-2-2-2-2-2-2-2-2-|--2--2-2-2-2-2-2-2-|-2-2-2-2-2-2-2-2-|--2--2-2-2-2-2-2-2-|
|-0-0-0-0-0-0-0-0-|--0--0-0-0-0-0-0-0-|-0-0-0-0-0-0-0-0-|--0--0-0-0-0-0-0-0-|
|-2-2-2-2-2-2-2-2-|--2--2-2-2-2-2-2-2-|-2-2-2-2-2-2-2-2-|--2--2-2-2-2-2-2-2-|


  Gtr IV
  Q   E E E E E E   +E  E E E E E E E   Q   E E E E E E   +E  E E E E E E E
|-----------------|-------------------|-----------------|-------------------|
|-----------------|-------------------|-----------------|-------------------|
|-2---2-2-2-2-2-2-|-(2)-2-2-2-2-2-2-2-|-2---2-2-2-2-2-1-|-(1)-1-1-1-1-1-1-1-|
|-4---4-4-4-4-4-4-|-(4)-4-4-4-4-4-4-4-|-3---3-3-3-3-3-2-|-(2)-2-2-2-2-2-2-2-|
|-4---4-4-4-4-4-4-|-(4)-4-4-4-4-4-4-4-|-3---3-3-3-3-3-2-|-(2)-2-2-2-2-2-2-2-|
|-4---4-4-4-4-4-4-|-(4)-4-4-4-4-4-4-4-|-3---3-3-3-3-3-2-|-(2)-2-2-2-2-2-2-2-|
|
| Gtrs I, II
| PM----------------------------------------------------------------------|
| E E E E E E E E    E  E E E E E E E   E E E E E E E E    E  E E E E E E E
|-----------------|-------------------|-----------------|-------------------|
|-----------------|-------------------|-----------------|-------------------|
|-----------------|-------------------|-----------------|-------------------|
|-4-4-4-4-4-4-4-4-|--4--4-4-4-4-4-4-4-|-3-3-3-3-3-3-3-2-|--2--2-2-2-2-2-2-2-|
|-4-4-4-4-4-4-4-4-|--4--4-4-4-4-4-4-4-|-3-3-3-3-3-3-3-2-|--2--2-2-2-2-2-2-2-|
|-4-4-4-4-4-4-4-4-|--4--4-4-4-4-4-4-4-|-3-3-3-3-3-3-3-2-|--2--2-2-2-2-2-2-2-|


  Gtr IV
  Q   E E E E E E   +E  E E E E E E E   Q   E E E E E E   +E  E E E E E E E
|-0---0-0-0-0-0-0-|-(0)-0-0-0-0-0-0-0-|-0---0-0-0-0-0-0-|-(0)-0-0-0-0-0-0-0-|
|-0---0-0-0-0-0-1-|-(1)-1-1-1-1-1-1-1-|-0---0-0-0-0-0-1-|-(1)-1-1-1-1-1-1-1-|
|-2---2-2-2-2-2-2-|-(2)-2-2-2-2-2-2-2-|-2---2-2-2-2-2-2-|-(2)-2-2-2-2-2-2-2-|
|-2---2-2-2-2-2-2-|-(2)-2-2-2-2-2-2-2-|-2---2-2-2-2-2-2-|-(2)-2-2-2-2-2-2-2-|
|-0---0-0-0-0-0-0-|-(0)-0-0-0-0-0-0-0-|-0---0-0-0-0-0-0-|-(0)-0-0-0-0-0-0-0-|
|-----------------|-------------------|-----------------|-------------------|
|
| Gtrs I, II
| PM----------------------------------------------------------------------|
| E E E E E E E E    E  E E E E E E E   E E E E E E E E    E  E E E E E E E
|-----------------|-------------------|-----------------|-------------------|
|-----------------|-------------------|-----------------|-------------------|
|-----------------|-------------------|-----------------|-------------------|
|-2-2-2-2-2-2-2-2-|--2--2-2-2-2-2-2-2-|-2-2-2-2-2-2-2-2-|--2--2-2-2-2-2-2-2-|
|-0-0-0-0-0-0-0-0-|--0--0-0-0-0-0-0-0-|-0-0-0-0-0-0-0-0-|--0--0-0-0-0-0-0-0-|
|-2-2-2-2-2-2-2-2-|--2--2-2-2-2-2-2-2-|-2-2-2-2-2-2-2-2-|--2--2-2-2-2-2-2-2-|


  Gtr IV
  Q   E E E E E E   +E  E E E E E E E   Q   E E E E E E   +E  E E E E E E E
|-----------------|-------------------|-----------------|-------------------|
|-----------------|-------------------|-----------------|-------------------|
|-2---2-2-2-2-2-2-|-(2)-2-2-2-2-2-2-2-|-2---2-2-2-2-2-1-|-(1)-1-1-1-1-1-1-1-|
|-4---4-4-4-4-4-4-|-(4)-4-4-4-4-4-4-4-|-3---3-3-3-3-3-2-|-(2)-2-2-2-2-2-2-2-|
|-4---4-4-4-4-4-4-|-(4)-4-4-4-4-4-4-4-|-3---3-3-3-3-3-2-|-(2)-2-2-2-2-2-2-2-|
|-4---4-4-4-4-4-4-|-(4)-4-4-4-4-4-4-4-|-3---3-3-3-3-3-2-|-(2)-2-2-2-2-2-2-2-|
|
| Gtrs I, II
| PM--------------------------------------------------------------|
| E E E E E E E E    E  E E E E E E E   E E E E E E E E    E  E E E E E E E
|-----------------|-------------------|-----------------|-------------------|
|-----------------|-------------------|-----------------|-------------------|
|-----------------|-------------------|-----------------|-------------------|
|-4-4-4-4-4-4-4-4-|--4--4-4-4-4-4-4-4-|-3-3-3-3-3-3-3-2-|--2--2-2-2-2-2-2-2-|
|-4-4-4-4-4-4-4-4-|--4--4-4-4-4-4-4-4-|-3-3-3-3-3-3-3-2-|--2--2-2-2-2-2-2-2-|
|-4-4-4-4-4-4-4-4-|--4--4-4-4-4-4-4-4-|-3-3-3-3-3-3-3-2-|--2--2-2-2-2-2-2-2-|


    Gtrs I, II
    E E E E E E E E   E E E E E E E E   E E E E E E E E   E E E E E E E E   4x
||------------------|-----------------|-----------------|-------------------||
||o-----------------|-----------------|-----------------|------------------o||
||------------------|-----------------|-----------------|-------------------||
||--4-4-4-4-4-4-4-4-|-4-4-4-4-4-4-4-4-|-7-7-7-7-7-7-7-7-|-7-7-7-7-7-7-7-7---||
||o-5-5-5-5-5-5-5-5-|-5-5-5-5-5-5-5-5-|-4-4-4-4-4-4-4-4-|-4-4-4-4-4-4-4-4--o||
||--0-0-0-0-0-0-0-0-|-0-0-0-0-0-0-0-0-|-4-4-4-4-4-4-4-4-|-4-4-4-4-4-4-4-4---||


    Gtrs I, II
    PM----|                     PM----|
    E E E E H      +W           E E E E H      +W
||---------------|------------|--------------|---------||
||o--------------|------------|--------------|--------o||
||---------------|------------|--------------|---------||
||--5-5-5-5-5----|-(5)--------|-7-7-7-7-7----|-(7)-----||
||o-5-5-5-5-5----|-(5)--------|-4-4-4-4-4----|-(4)----o||
||--5-5-5-5-5----|-(5)--------|-4-4-4-4-4----|-(4)-----||


  Gtrs I, II
  PM----|        PM----|        PM----|        PM----|
  E E E E H      E E E E H      E E E E H      E E E E H
|--------------|--------------|--------------|--------------|
|--------------|--------------|--------------|--------------|
|--------------|--------------|--------------|--------------|
|-5-5-5-5-5----|-5-5-5-5-5----|-7-7-7-7-7----|-7-7-7-7-7----|
|-5-5-5-5-5----|-5-5-5-5-5----|-4-4-4-4-4----|-4-4-4-4-4----|
|-5-5-5-5-5----|-5-5-5-5-5----|-4-4-4-4-4----|-4-4-4-4-4----|


  Gtrs I, II
  PM----|        PM----|
  E E E E H      E E E E H      W          +W
|--------------|--------------|----------|--------|
|--------------|--------------|----------|--------|
|--------------|--------------|----------|--------|
|-5-5-5-5-5----|-5-5-5-5-5----|-4--------|-(4)----|
|-5-5-5-5-5----|-5-5-5-5-5----|-4--------|-(4)----|
|-5-5-5-5-5----|-5-5-5-5-5----|-4--------|-(4)----|


    Gtrs I, II
    E E E E E E E E   E E E E E E E E   E E E E E E E E   E E E E E E E E   3x
||------------------|-----------------|-----------------|-------------------||
||o-----------------|-----------------|-----------------|------------------o||
||------------------|-----------------|-----------------|-------------------||
||--4-4-4-4-4-4-4-4-|-4-4-4-4-4-4-4-4-|-7-7-7-7-7-7-7-7-|-7-7-7-7-7-7-7-7---||
||o-5-5-5-5-5-5-5-5-|-5-5-5-5-5-5-5-5-|-4-4-4-4-4-4-4-4-|-4-4-4-4-4-4-4-4--o||
||--0-0-0-0-0-0-0-0-|-0-0-0-0-0-0-0-0-|-4-4-4-4-4-4-4-4-|-4-4-4-4-4-4-4-4---||


  Gtrs I, II
  E E E E E E E E   E E E E E E E E   W          +W
|-----------------|-----------------|----------|--------*|
|-----------------|-----------------|----------|--------*|
|-----------------|-----------------|----------|--------*|
|-4-4-4-4-4-4-4-4-|-4-4-4-4-4-4-4-4-|-4--------|-(4)----*|
|-5-5-5-5-5-5-5-5-|-5-5-5-5-5-5-5-5-|-4--------|-(4)----*|
|-0-0-0-0-0-0-0-0-|-0-0-0-0-0-0-0-0-|-4--------|-(4)----*|



Duration Legend
---------------
W - whole; H - half; Q - quarter; E - 8th; S - 16th; T - 32nd; X - 64th; a - acciaccatura
+ - note tied to previous; . - note dotted; .. - note double dotted
Uncapitalized letters represent notes that are staccato (1/2 duration)
Irregular groupings are notated above the duration line
Duration letters will always appear directly above the note/fret number it represents the
duration for.  Duration letters with no fret number below them represent rests.  Multi-
bar rests are notated in the form Wxn, where n is the number of bars to rest for.  Low
melody durations appear below the staff

Tablature Legend
----------------
 h   - hammer-on
 p   - pull-off
 b   - bend
 pb  - pre-bend
 r   - bend release (if no number after the r, then release immediately)
 /\  - slide into or out of (from/to "nowhere")
 s   - legato slide
 S   - shift slide
 - natural harmonic
[n]  - artificial harmonic
n(n) - tapped harmonic
 ~   - vibrato
 tr  - trill
 T   - tap
 TP  - trem. picking
 PM  - palm muting
\n/  - tremolo bar dip; n = amount to dip
 \n  - tremolo bar down
 n/  - tremolo bar up
/n\  - tremolo bar inverted dip
 =   - hold bend; also acts as connecting device for hammers/pulls
 <> - volume swell (louder/softer)
 x   - on rhythm slash represents muted slash
 o   - on rhythm slash represents single note slash

Misc Legend
-----------
 |  - bar
||  - double bar
||o - repeat start
o|| - repeat end
*|  - double bar (ending)
 :  - bar (freetime)
 $  - Segno
 &  - Coda
Tempo markers -  = BPM(8/16=s8/s16), where s8 = swing 8ths, s16 = swing 16ths

Tap to rate this tab
# A B C D E F G H I J K L M N O P Q R S T U V W X Y Z