Song name
# A B C D E F G H I J K L M N O P Q R S T U V W X Y Z

Mokoma - Kasvot Kohti Itaa tab

#----------------------------------PLEASE NOTE---------------------------------#
#This file is the author's own work and represents their interpretation of the #
#song. You may only use this file for private study, scholarship, or research. #
#------------------------------------------------------------------------------#

KASVOT KOHTI ITÄÄ
As recorded by Mokoma
(From the 2003 Album KURIMUS)

Transcribed by zesar_1337  	

	

Words by M. Annala Music by Mokoma

Gtr I (D A D G B E) - 'Kuisma'
Gtr II (D A D G B E) - 'Tuomo'
Gtr III (D A D G B E) - 'Kuisma2'
Gtr IV (D A D G B E) - 'Tuomo2'

  Q=130
 4/4
  Gtrs I, II
  H    H      W          H    H
|-----------|----------|-----------||
|-----------|----------|-----------||
|-----------|----------|-----------||
|-5----4----|-1--------|-5----4----||
|-5----4----|-1--------|-5----4----||
|-5----4----|-1--------|-5----4----||


    PM--|   PM|   PM|   PM|     PM|   PM|   PM|
    |-3-| |-3-| |-3-| |-3-|   |-3-| |-3-| |-3-|
    E E E E E E E E E E E E   E E E E E E E E E Q
||--------------------------|----------------------||
||o-------------------------|----------------------||
||--------------------------|----------------------||
||--------8-----7-----------|-------------------3--||
||o-------------------8-----|-5-----8-----5-----3--||
||--5-5-5---5-5---5-5---5-5-|---5-5---5-5---5-5-3--||


  PM--|     PM    PM    PM--------|     PM----|
  |-3-| |-3-| |-3-| |-3-|     |-3-| |-3-| |-3-|
  E E E E E E E E E E E E   E S S S E E E E E E Q   4x
|-------------------------|-------------------------||
|-------------------------|------------------------o||
|-------------------------|-------------------------||
|-------------------------|---------------------8---||
|-------3h5---7h8---3h5---|---------3h5---------8--o||
|-0-0-0-----0-----0-----0-|-0-0-0-0-----0-0-0-0-8---||


  Gtr III
   H     H       W           H     H       W
|-------------|-----------|-------------|-------||
|-------------|-----------|-------------|-------||
|-------------|-----------|-------------|-------||
|-^5----^4----|-^1--------|-^5----^4----|-^1----||
|-^5----^4----|-^1--------|-^5----^4----|-^1----||
|-^5----^4----|-^1--------|-^5----^4----|-^1----||


  Gtr III
   H     H       W           H     H       W
|-------------|-----------|-------------|-------||
|-------------|-----------|-------------|-------||
|-------------|-----------|-------------|-------||
|-^5----^4----|-^1--------|-^5----^4----|-^1----||
|-^5----^4----|-^1--------|-^5----^4----|-^1----||
|-^5----^4----|-^1--------|-^5----^4----|-^1----||
|
| Gtr IV
|  H     H       W           H     H       W
|-^5----^5----|-^6--------|-^5----^6----|-^1----||
|-^3----^2----|-^4--------|-^3----^4----|-^1----||
|-^3----^3----|-^5--------|-^3----^5----|-^1----||
|-------------|-----------|-------------|-------||
|-------------|-----------|-------------|-------||
|-------------|-----------|-------------|-------||


    Gtrs I, II
    PM--|   PM|   PM|   PM|     PM|   PM|   PM|
    |-3-| |-3-| |-3-| |-3-|   |-3-| |-3-| |-3-|
    E E E E E E E E E E E E   E E E E E E E E E Q
||--------------------------|----------------------||
||o-------------------------|----------------------||
||--------------------------|----------------------||
||--------8-----7-----------|-------------------3--||
||o-------------------8-----|-5-----8-----5-----3--||
||--5-5-5---5-5---5-5---5-5-|---5-5---5-5---5-5-3--||


  PM--|     PM    PM    PM--------|     PM----|
  |-3-| |-3-| |-3-| |-3-|     |-3-| |-3-| |-3-|
  E E E E E E E E E E E E   E S S S E E E E E E Q
|-------------------------|-------------------------||
|-------------------------|------------------------o||
|-------------------------|-------------------------||
|-------------------------|---------------------8---||
|-------3h5---7h8---3h5---|---------3h5---------8--o||
|-0-0-0-----0-----0-----0-|-0-0-0-0-----0-0-0-0-8---||


  Gtrs I, II
                                       PM|   PM|
                                     |-3-| |-3-|
  H    H      W          H    H      Q Q Q Q Q Q
|-----------|----------|-----------|-------------||
|-----------|----------|-----------|-------------||
|-----------|----------|-----------|-------------||
|-5----4----|-1--------|-5----4----|-1-----1-----||
|-5----4----|-1--------|-5----4----|-1-1-1-1-1-1-||
|-5----4----|-1--------|-5----4----|-1-1-1-1-1-1-||


  Gtr I
  |-3-| |-3-| |-3-| |-3-|
  E E E E E E E E E E E E   W          H    H      W          W
|-------------------------|----------|-----------|----------|------||
|-------------------------|----------|-----------|----------|------||
|-------------------------|----------|-----------|----------|------||
|-------------------------|----------|-5----4----|-1--------|-0----||
|-5-5-5-5-5-5-4-4-4-4-4-4-|-1--------|-5----4----|-1--------|-0----||
|-------------------------|----------|-5----4----|-1--------|-0----||
|
| Gtr II
| |-3-| |-3-| |-3-| |-3-|
| E E E E E E E E E E E E   W          H    H      W          W
|-------------------------|----------|-----------|----------|------||
|-------------------------|----------|-----------|----------|------||
|-------------------------|----------|-----------|----------|------||
|-------------------------|-1--------|-5----4----|-1--------|-0----||
|-------------------------|-1--------|-5----4----|-1--------|-0----||
|-5-5-5-5-5-5-4-4-4-4-4-4-|-1--------|-5----4----|-1--------|-0----||


  Gtrs I, II
  W          W          W          W
|----------|----------|----------|------||
|----------|----------|----------|------||
|----------|----------|----------|------||
|-5--------|-8--------|-3--------|-1----||
|-5--------|-8--------|-3--------|-1----||
|-5--------|-8--------|-3--------|-1----||


                                           PM--|
                                           |-3-|
  W          W          W          H.      E E E
|----------|----------|----------|----------------||
|----------|----------|----------|----------------||
|----------|----------|----------|----------------||
|-5--------|-8--------|-3--------|-1--------------||
|-5--------|-8--------|-3--------|-1-------0-0-0--||
|-5--------|-8--------|-3--------|-1-------0-0-0--||


    Gtrs I, II
    W          W          W          W
||-----------|----------|----------|-------||
||o----------|----------|----------|------o||
||-----------|----------|----------|-------||
||--5--------|-8--------|-3--------|-1-----||
||o-5--------|-8--------|-3--------|-1----o||
||--5--------|-8--------|-3--------|-1-----||


  Gtrs I, II
                                       PM|   PM|
                                     |-3-| |-3-|
  H    H      W          H    H      Q Q Q Q Q Q
|-----------|----------|-----------|-------------||
|-----------|----------|-----------|-------------||
|-----------|----------|-----------|-------------||
|-5----4----|-1--------|-5----4----|-1-----1-----||
|-5----4----|-1--------|-5----4----|-1-1-1-1-1-1-||
|-5----4----|-1--------|-5----4----|-1-1-1-1-1-1-||


  Gtr I
  |-3-| |-3-| |-3-| |-3-|
  E E E E E E E E E E E E   W          H    H      W          W
|-------------------------|----------|-----------|----------|------||
|-------------------------|----------|-----------|----------|------||
|-------------------------|----------|-----------|----------|------||
|-------------------------|----------|-5----4----|-1--------|-0----||
|-5-5-5-5-5-5-4-4-4-4-4-4-|-1--------|-5----4----|-1--------|-0----||
|-------------------------|----------|-5----4----|-1--------|-0----||
|
| Gtr II
| |-3-| |-3-| |-3-| |-3-|
| E E E E E E E E E E E E   W          H    H      W          W
|-------------------------|----------|-----------|----------|------||
|-------------------------|----------|-----------|----------|------||
|-------------------------|----------|-----------|----------|------||
|-------------------------|-1--------|-5----4----|-1--------|-0----||
|-------------------------|-1--------|-5----4----|-1--------|-0----||
|-5-5-5-5-5-5-4-4-4-4-4-4-|-1--------|-5----4----|-1--------|-0----||


  Gtrs I, II
  W          W          W          W
|----------|----------|----------|------||
|----------|----------|----------|------||
|----------|----------|----------|------||
|-5--------|-8--------|-3--------|-1----||
|-5--------|-8--------|-3--------|-1----||
|-5--------|-8--------|-3--------|-1----||


                                           PM--|
                                           |-3-|
  W          W          W          H.      E E E
|----------|----------|----------|----------------||
|----------|----------|----------|----------------||
|----------|----------|----------|----------------||
|-5--------|-8--------|-3--------|-1--------------||
|-5--------|-8--------|-3--------|-1-------0-0-0--||
|-5--------|-8--------|-3--------|-1-------0-0-0--||


  Gtrs I, II
  W          W          W          W
|----------|----------|----------|------||
|----------|----------|----------|------||
|----------|----------|----------|------||
|-5--------|-8--------|-3--------|-1----||
|-5--------|-8--------|-3--------|-1----||
|-5--------|-8--------|-3--------|-1----||


  W          W          W          W          W          W
|----------|----------|----------|----------|----------|------||
|----------|----------|----------|----------|----------|------||
|----------|----------|----------|----------|----------|------||
|-5--------|-8--------|-3--------|-1--------|-1--------|-5----||
|-5--------|-8--------|-3--------|-1--------|-1--------|-5----||
|-5--------|-8--------|-3--------|-1--------|-1--------|-5----||


  Gtr I
  E   H..                       H.                 Q
|-----------------------------|-----------------------||
|-----------------------------|-----------------------||
|-----------------------------|-----------------------||
|-5---------------------------|--------------------3--||
|-5---------------------------|--------------------3--||
|-5---------------------------|--------------------3--||
|
| Gtr II
| PM------|   PM|   PM|   PM|      PM|   PM|   PM|
| |---3---| |-3-| |-3-| |-3-|   |-3--| |-3-| |-3-|
| E E     E E E E E E E E E E   E  E E E E E E E E Q
|-----------------------------|-----------------------||
|-----------------------------|-----------------------||
|-----------------------------|-----------------------||
|-----------8-----7-----------|--------------------3--||
|-----------------------8-----|-5------8-----5-----3--||
|-5-5-----5---5-5---5-5---5-5-|----5-5---5-5---5-5-3--||


  E   H..                       E E     H            Q
|-----------------------------|--------------------------||
|-----------------------------|--------------------------||
|-----------------------------|--------------------------||
|-0---------------------------|-0--------------------8---||
|-0---------------------------|-0--------------------8---||
|-0---------------------------|-0--------------------8---||
|
| PM------|     PM    PM    PM--------|     PM----|  ~~~
| |---3---| |-3-| |-3-| |-3-|     |-3-| |-3-| |-3-|
| E E     E E E E E E E E E E   E S S S E E E E E E  Q
|-----------------------------|--------------------------||
|-----------------------------|--------------------------||
|-----------------------------|--------------------------||
|-----------------------------|--------------------------||
|-----------3h5---7h8---3h5---|---------3h5--------------||
|-0-0-----0-----0-----0-----0-|-0-0-0-0-----0-0-0-0-[8]--||


    PM--|   PM|   PM|   PM|     PM|   PM|   PM|
    |-3-| |-3-| |-3-| |-3-|   |-3-| |-3-| |-3-|
    E E E E E E E E E E E E   E E E E E E E E E Q
||--------------------------|----------------------||
||o-------------------------|----------------------||
||--------7-----5-----------|----------------------||
||--------------------7-----|-------7-----------3--||
||o-------------------------|-8-----------8-----3--||
||--5-5-5---5-5---5-5---5-5-|---5-5---5-5---5-5-3--||
|
|   PM--|   PM|   PM|   PM|     PM|   PM|   PM|
|   |-3-| |-3-| |-3-| |-3-|   |-3-| |-3-| |-3-|
|   E E E E E E E E E E E E   E E E E E E E E E Q
||--------------------------|----------------------||
||o-------------------------|----------------------||
||--------------------------|----------------------||
||--------8-----7-----------|-------------------3--||
||o-------------------8-----|-5-----8-----5-----3--||
||--5-5-5---5-5---5-5---5-5-|---5-5---5-5---5-5-3--||


  PM--|     PM    PM    PM--------|     PM----|  ~~~
  |-3-| |-3-| |-3-| |-3-|     |-3-| |-3-| |-3-|
  E E E E E E E E E E E E   E S S S E E E E E E  Q
|-------------------------|---------------------------||
|-------------------------|--------------------------o||
|-------------------------|---------------------------||
|-------2h3---5h7---2h3---|---------2h3----------8----||
|-------------------------|--------------------------o||
|-0-0-0-----0-----0-----0-|-0-0-0-0-----0-0-0-0-------||
|
| PM--|     PM    PM    PM--------|     PM----|  ~~~
| |-3-| |-3-| |-3-| |-3-|     |-3-| |-3-| |-3-|
| E E E E E E E E E E E E   E S S S E E E E E E  Q
|-------------------------|---------------------------||
|-------------------------|--------------------------o||
|-------------------------|---------------------------||
|-------------------------|---------------------------||
|-------3h5---7h8---3h5---|---------3h5---------[8]--o||
|-0-0-0-----0-----0-----0-|-0-0-0-0-----0-0-0-0-------||


  Gtrs I, II
  H    H      W          H    H      W
|-----------|----------|-----------|------||
|-----------|----------|-----------|------||
|-----------|----------|-----------|------||
|-5----4----|-1--------|-5----4----|-1----||
|-5----4----|-1--------|-5----4----|-1----||
|-5----4----|-1--------|-5----4----|-1----||


  Gtr I
                PM------|
              |-3-| |-3-|
  H    H      Q Q Q Q Q Q   H    H      W          +W
|-----------|-------------|-----------|----------|--------||
|-----------|-------------|-----------|----------|--------||
|-----------|-------------|-----------|----------|--------||
|-5----4----|-1-----------|-----------|----------|--------||
|-5----4----|-1-1-1-1-1-1-|-5----4----|-5--------|-(5)----||
|-5----4----|-1-1-1-1-1-1-|-----------|----------|--------||
|
| Gtr II
|               PM------|
|             |-3-| |-3-|
| H    H      Q Q Q Q Q Q   H    H      W          +W
|-----------|-------------|-----------|----------|--------||
|-----------|-------------|-----------|----------|--------||
|-----------|-------------|-----------|----------|--------||
|-5----4----|-1-----------|-5----4----|-1--------|-(1)----||
|-5----4----|-1-1-1-1-1-1-|-5----4----|-1--------|-(1)----||
|-5----4----|-1-1-1-1-1-1-|-5----4----|-1--------|-(1)----||


  Gtrs I, II
  W          W          W          W
|----------|----------|----------|------||
|----------|----------|----------|------||
|----------|----------|----------|------||
|-5--------|-8--------|-3--------|-1----||
|-5--------|-8--------|-3--------|-1----||
|-5--------|-8--------|-3--------|-1----||


                                           PM--|
                                           |-3-|
  W          W          W          H.      E E E
|----------|----------|----------|----------------||
|----------|----------|----------|----------------||
|----------|----------|----------|----------------||
|-5--------|-8--------|-3--------|-1--------------||
|-5--------|-8--------|-3--------|-1-------0-0-0--||
|-5--------|-8--------|-3--------|-1-------0-0-0--||


    Gtrs I, II
    W          W          W          W
||-----------|----------|----------|-------||
||o----------|----------|----------|------o||
||-----------|----------|----------|-------||
||--5--------|-8--------|-3--------|-1-----||
||o-5--------|-8--------|-3--------|-1----o||
||--5--------|-8--------|-3--------|-1-----||


    PM--|   PM|   PM|
    |-3-| |-3-| |-3-|
    E E E E E E E E E Q   5x
||------------------------||
||o----------------------o||
||--------7-----5---------||
||--------------------7---||
||o----------------------o||
||--5-5-5---5-5---5-5-----||
|
|   Gtr III
|   PM--|   PM|   PM|
|   |-3-| |-3-| |-3-|
|   E E E E E E E E E Q   5x
||------------------------||
||o----------------------o||
||------------------------||
||--------8-----7---------||
||o-------------------8--o||
||--5-5-5---5-5---5-5-----||


  PM--|   PM|   PM|
  |-3-| |-3-| |-3-|
  E E E E E E E E E Q    Q.   E +H       Q  Q  Q  Q    W
|----------------------|---------------|-------------|------*|
|-------8-----6--------|---------------|----------6--|------*|
|-------------------7--|------7-(7)----|----5--7-----|-7----*|
|----------------------|-8-------------|-8-----------|------*|
|----------------------|---------------|-------------|------*|
|-5-5-5---5-5---5-5----|---------------|-------------|------*|
|
| PM--|   PM|   PM|
| |-3-| |-3-| |-3-|
| E E E E E E E E E Q    Q.   E +H       Q  Q  Q  Q    W
|----------------------|---------------|-------------|------*|
|----------------------|---------------|-------------|------*|
|----------------------|---------------|-------------|------*|
|-------8-----7--------|---------------|-------------|------*|
|-------------------8--|-5----8-(8)----|-5--3--1--0--|------*|
|-5-5-5---5-5---5-5----|---------------|-------------|-5----*|



Duration Legend
---------------
W - whole; H - half; Q - quarter; E - 8th; S - 16th; T - 32nd; X - 64th; a - acciaccatura
+ - note tied to previous; . - note dotted; .. - note double dotted
Uncapitalized letters represent notes that are staccato (1/2 duration)
Irregular groupings are notated above the duration line
Duration letters will always appear directly above the note/fret number it represents the
duration for.  Duration letters with no fret number below them represent rests.  Multi-
bar rests are notated in the form Wxn, where n is the number of bars to rest for.  Low
melody durations appear below the staff

Tablature Legend
----------------
 h   - hammer-on
 p   - pull-off
 b   - bend
 pb  - pre-bend
 r   - bend release (if no number after the r, then release immediately)
 /\  - slide into or out of (from/to "nowhere")
 s   - legato slide
 S   - shift slide
 - natural harmonic
[n]  - artificial harmonic
n(n) - tapped harmonic
 ~   - vibrato
 tr  - trill
 T   - tap
 TP  - trem. picking
 PM  - palm muting
\n/  - tremolo bar dip; n = amount to dip
 \n  - tremolo bar down
 n/  - tremolo bar up
/n\  - tremolo bar inverted dip
 =   - hold bend; also acts as connecting device for hammers/pulls
 <> - volume swell (louder/softer)
 x   - on rhythm slash represents muted slash
 o   - on rhythm slash represents single note slash

Misc Legend
-----------
 |  - bar
||  - double bar
||o - repeat start
o|| - repeat end
*|  - double bar (ending)
 :  - bar (freetime)
 $  - Segno
 &  - Coda
Tempo markers -  = BPM(8/16=s8/s16), where s8 = swing 8ths, s16 = swing 16ths

Tap to rate this tab
# A B C D E F G H I J K L M N O P Q R S T U V W X Y Z