Song name
# A B C D E F G H I J K L M N O P Q R S T U V W X Y Z

Moldy Peaches - Lucky Charms tab

Lucky Charms
Moldy Peaches

This is the keyboard part played throughout:

Verse:
e-------------3-----------------------|
B-5-3-5-5-3-5---5-3--3-1-3-3-1-3------|
G--------------------------------2-2-0|
D-------------------------------------|
A-------------------------------------|
E-------------------------------------|

Chorus:
e-------------3-8-7-5-----------------|
B-5-3-5-5-3-5---------5-3-5-3-1-------|
G-------------------------------------|
D-------------------------------------|
A-------------------------------------|
E-------------------------------------|


You池e a star steal my car just save me
On a roll sell my soul forgiveness
Crossed with red think I知 dead its over
Words you say leave my head or hold me
Holy ground cup of dirt down pavement
Smell your shirt and I hurt till tomorrow
I feel like I知 chasing the guy from Lucky Charms
Fell in love out of love still dreaming
Flying blue without out you slow motion
Baseball champs gothic vamps and stage fright
I love hard as a guard I知 crying
Now you池e gone I知 a wave without direction
Baby born lost its way in the forest
I feel like I知 chasing the guy the from Lucky charms
Now I知 gone
Now I'm gone
Now I知 gone
Now I知 gone
All alone
All alone
All alone
All alone

Now I feel like I知 chasing the guy from Lucky charms
All alone
All alone
Leaving home
Leaving home
All alone
Tap to rate this tab
# A B C D E F G H I J K L M N O P Q R S T U V W X Y Z