Song name
# A B C D E F G H I J K L M N O P Q R S T U V W X Y Z

Moldy Peaches - Whos Got The Crack tab

Band: The Moldy Peaches
song: Who's got the Crack


tabbed by jam9383@yahoo.com


Intro
       D                        A7
e-------2---2h3p2-2-------3-0---3----------------------------------------------------|
B---------3---------3---------3-2----------------------------------------------------|
G----2----------------2---------2----------------------------------------------------|
D--0--------------------0-------2----------------------------------------------------|
A-------------------------------0----------------------------------------------------|
E------------------------------------------------------------------------------------|

Verse

    D          G          A7
e---2----------3----------3----------------------------------------------------------|
B---3----------0----------2----------------------------------------------------------|
G---2----------0----------2----------------------------------------------------------|
D---0----------0----------2----------------------------------------------------------|
A--------------2----------0----------------------------------------------------------|
E--------------3---------------------------------------------------------------------|

Chorus

    D                G                 A7
e---2-2-2-2-2-2-2-2--3-3-3-3-3-3-3-3---3-3-3-3-3-3-3-3-3-----------------------------|
B---3-3-3-3-3-3-3-3--0-0-0-0-0-0-0-0---2-2-2-2-2-2-2-2-2-----------------------------|
G---2-2-2-2-2-2-2-2--0-0-0-0-0-0-0-0---2-2-2-2-2-2-2-2-2-----------------------------|
D---0-0-0-0-0-0-0-0--0-0-0-0-0-0-0-0---2-2-2-2-2-2-2-2-2-----------------------------|
A--------------------2-2-2-2-2-2-2-2---0-0-0-0-0-0-0-0-0-----------------------------|
E--------------------3-3-3-3-3-3-3-3-------------------------------------------------|
Tap to rate this tab
# A B C D E F G H I J K L M N O P Q R S T U V W X Y Z