Song name
# A B C D E F G H I J K L M N O P Q R S T U V W X Y Z

Moldy Peaches - Little Bunny Foo Foo tab

Help us improve GuitareTab! Take a short survey!
ha, most simple song I've heard in ages, from what I wouldn't really call a good band,
but I thought I'd work it out anyway.

|--------------------
|--------------------
|---2----7----9----7-
|---2----7----9----7-
|-0-0--5-5--7-7--5-5-
|--------------------

|-------------------------
|-------------------------
|---2----7--9-9-9-9-9-9-9-
|---2----7--9-9-9-9-9-9-9-
|-0-0--5-5--7-7-7-7-7-7-7-
|-------------------------

simple eh!?
here's another bit just cos my tab was "too short"

|---------------
|---------------
|-9-9-9-9-9-9-9-
|-9-9-9-9-9-9-9-
|-7-7-7-7-7-7-7-
|---------------

that's after the bass bit, yeah, easier than u didn't think!?
Related for Little Bunny Foo Foo tab