Song name
# A B C D E F G H I J K L M N O P Q R S T U V W X Y Z

Moldy Peaches - Ballad Of Helen Keller And Rip Van Winkle tab

#----------------------------------PLEASE NOTE---------------------------------#
#This file is the author's own work and represents their interpretation of the #
#song. You may only use this file for private study, scholarship, or research. #
#------------------------------------------------------------------------------#

TABBED BY:  Chris Schmoutz  colormeenthused@yahoo.com

Artist: The Moldy Peaches
Album: The Moldy Peaches
Song: The Ballad of Helen Keller and Rip van Winkle


I've written this tab for one guitar, though two could be used for
the second riff.

riff 1:
e-----------------|
B---1-------3-----|
G-----0-------0---|
D-------2-------2-|
A-3-------3-------|
E-----------------|

riff 2:
e---0-3-0---0-3-0-|
B---1-----3-3-----|
G-----0-------0---|
D-------2-------2-|
A-3-------3-------|
E-----------------|
Tap to rate this tab
# A B C D E F G H I J K L M N O P Q R S T U V W X Y Z