Song name
# A B C D E F G H I J K L M N O P Q R S T U V W X Y Z

Molly Hatchet - Its All Over Now tab

Artist:Molly Hatchet
Album:Flirtin' With Disaster
Song:It's All Over Now


|---2---------------------------|
|---3---------------------------|
|-1-2--------------------2------|
|-2-0-----2-2-4-4-2-2-3-4-4-3-2-|
|-2-------0-0-0-0-0-------------|
|-0-----------------------------|

|-------------------------------------|
|-------------------------------------|
|----------------2----------------5-5-|
|-2-2-4-4-2-2-3-4-4-3-2-2-2-4-4-2-5-5-|
|-0-0-0-0-0-------------0-0-0-0-0-3-3-|
|-------------------------------------|

I just figured I would throw in the verse too!
Tap to rate this tab
# A B C D E F G H I J K L M N O P Q R S T U V W X Y Z