Song name
# A B C D E F G H I J K L M N O P Q R S T U V W X Y Z

Molly Hatchet - Dreams Ill Never See tab

Dreams Ill Never See-Molly Hatchet


Intro  (2x)
E-----------------------------------------------------------------------|
B-----------------------------------------------------------------------|
G-----------------------------------------------------------------------|
D---5--------4---------2------------4-----------------------------------|
A---5--------5---------3------------5-----------------------------------|
E-----------------------------------------------------------------------|



Main Riff
E-----------------------------------------------------------------------|
B-----------------------------------------------------------------------|
G-----------------------------------------------------------------------|
D--X-X-5-5-X-5-X-5---X-X-4-4-X-X-X-4------------------------------------|
A--X-X-5-5-X-5-X-5---X-X-5-5-X-X-X-5------------------------------------|
E-----------------------------------------------------------------------|


>Riff A                      <  >Riff B                          <
E---------------------------------------5---------5------5-5-5----------|
B---------------------------------------5---------5------5-5-5----------|
G------9--------9-----9-9-9-------------2---------2------2-2-2----------|
D------9--------9-----9-9-9-------------2---------2------2-2-2----------|
A------7--------7-----7-7-7--------0-0-----0-0-0------0-----------------|
E--0-0----0-0-0-----0---------------------------------------------------|


Main Riff
Just one more morning, I have to wake up with the blues

Pull myself outta bed, yeah, and put on my walking shoes

Climb up on the hilltop, baby,  To see what I can see

Whole world is falling down, babe, Right down in front of me


Chorus:           G          F                           Riff A
         And I get hung up on Dream's I'm never gonna see yeah!
       C                   Bb                          Riff B
         Lord help me baby, Dreams got the best of me, yeah!

Main Riff
Pull myself together, Put on my new face yeah
                                   C                      D
Climb down from the hilltop, baby,  Lord get back in the race
Main Riff
'Cuz I've got dreams, I got my dreams, to remember oh yeah!  (2x)

Chorus:
Solo over Main Riff
Then intro
Back to Main Riff
Riff C 3xs
Riff D 2xs
Riff C
Main Riff
Verse 2
Chorus


Riff C
>Play 3xs             <      Then this
E--------------------------------------------------------------------------|
B-----8-7--8-7------7-------------5----------------------------------------|
G-----7-7--7-7------7-------------5----------------------------------------|
D-----9-7--9-7------7-------------5----------------------------------------|
A--------------7-9------------------------------------------------------E--|

Riff D
E-----------------------------------------------------------------------|
B-------------------------3---------------------------------------------|
G-------------------------2-----------------------------------2---------|
D-------------------------0-----------------------------------2---------|
A---3-2-3-2-3-2-3--3-2-3---------3-2-3-2-3-2-3--3-2-3---------0---------|
E----------------------------------------------------------3------------|


Any questions,comments concerns email me at eliashs@wcs.k12.va.us
Tap to rate this tab
# A B C D E F G H I J K L M N O P Q R S T U V W X Y Z