Song name
# A B C D E F G H I J K L M N O P Q R S T U V W X Y Z

Molly Hatchet - Beatin The Odds tab

Molly Hatchet
Beatin' the odds

e|--------------------------------------------------------------|
B|--------------------------------------------------------------|
G|------------------------------------------------------7-------|
D|-2-2-2-4-2-2-5--2-4-2-----------2-2-2-4-2-2-5--2-4-2--7-------|
A|-0-0-0-0-0-0-0--0-0-0--2-3-2-3------------------------5-------|
E|--------------------------------------------------------------|

e|--------------------------------------------------------------|
B|--------------------------------------------------------------|
G|------------------------------------------------------7-5-----|
D|-2-2-2-4-2-2-5--2-4-2-----------2-2-2-4-2-2-5--2-4-2--7-5-----|
A|-0-0-0-0-0-0-0--0-0-0--2-3-2-3------------------------5-3-----|
E|--------------------------------------------------------------|
Tap to rate this tab
 
# A B C D E F G H I J K L M N O P Q R S T U V W X Y Z