Song name
# A B C D E F G H I J K L M N O P Q R S T U V W X Y Z

Moloko - The Time Is Now tab

Artist: Moloko
Song: The Time Is Now
Transcription: satir3, satir3@net.hr

Tuning: standard, no capo

Chords used:
Dm: xx0231
Am: x02210
Em: 022000
F: 133211
G: 355433

Intro:

E |-----|-------------|---x----x------|---------------|---x----x-----|
B |-----|-------------|---x----x------|---------------|---x----x-----|
G |-----|-------------|---x----x------|---------------|---x----x-----|
D |-0-0-|-0--2--3-5-7-|---x----x--0-0-|--0--2--3--3-5-|---x----x-0-0-|
A |-----|-------------|---x--0-x------|---------------|---x--0-x-----|
E |-----|-------------|-0-x----x------|---------------|-0-x----------|

E |-------------|---x----x-----|---------------|-----------------|-----|
B |-------------|---x----x-----|---------------|-----------------|-----|
G |-------------|---x----x-----|---------------|-----------------|-----|
D |-0-2-3-5-5-7-|---x----x-----|-----3---3---3-|---5---5---5---5-|-2-0-|
A |-------------|---x--0-x-----|---------------|-----------------|-----|
E |-------------|-0-x----x-1-1-|-1-1---1---1---|-3---3---3---3---|-----|


Verse:
Dm      Am       Em 
 You're my last breathe 
  Am        Dm      Am         Em     Am
You're a breathe of fresh air to me 
Dm     Am     Em
  Hi, I'm empty 
    Am         Dm     Am   Em  Am
So tell me you care for me 
Dm      Am        Em
 You're the first thing 
 Am               Dm     Am   Em  Am
And the last thing on my mind 
Dm      Am    Em    Am
 In your arms I feel 
F        G
 Sunshine 

On a promise 
A day dream yet to come 
Time is upon us 
Oh but the night is young 
Flowers blossom 
In the winter time 
In your arms I feel 
Sunshine 

Chorus:
Dm         Am        Em        Am
 Give up yourself unto the moment 
Dm     Am     Em   Am   
 The time is now 
Dm         Am        Em        Am
 Give up yourself unto the moment 
F               G
Let's make this moment last 

Verse:
You may find yourself 
Out on a limb for me 
Could you expect it as 
A part of your destiny 
I give all I have 
But it's not enough 
And my patience is shot 
So I'm calling your bluff 

Chorus:
Give up yourself unto the moment 
The time is now 
Give up yourself unto the moment 
Let's make this moment last 

Give up yourself unto the moment 
The time is now 
Give up yourself unto the moment 
Let's make this moment ... last 

Verse:
And we gave it time 
All eyes are on the clock 
But time takes too much time 
Please make the waiting stop 
And the atmosphere is charged. 
In you I trust. 
And I feel no fear as I 
Do as I must. 

Chorus:
Give up yourself unto the moment 
The time is now 
Give up yourself unto the moment 
Let's make this moment last. 

Give up yourself unto the moment 
The time is now 
Give up yourself unto the moment 
Let's make this moment last 

Verse:
Tempted by fear 
And I won't hesitate 
The time is now 
Let's make this moment last
The night is young(?)
The time is now 
Let's make this moment last 

Chorus-outro:
Give up yourself unto the moment 
The time is now 
Give up yourself unto the moment 
Let's make this moment ... last.
Tap to rate this tab
# A B C D E F G H I J K L M N O P Q R S T U V W X Y Z