Song name
# A B C D E F G H I J K L M N O P Q R S T U V W X Y Z

Molotov Jukebox - Double Dare tab

Standard Tuning.
Intro

  Mellow Part                         Strummed Part
e-|---10---13---11--10----|
b-|---11---11---11--10----|
g-|---10---10---10--10----|
d-|-----------------------|
a-|-----------------------|
e-|-----------------------|


   up stroke   up stroke
      A#         D#          F
e-----6----------6-----------8--------------|
b-----6----------8-----------10-------------|
g-----7----------8-----------10-------------|
d-----8----X4----8---X2------10---X2--------|
a-----8----------6-----------8--------------|
e-----6-------------------------------------|

A# - D# - F  all Song

I'm not up to scratch
You started before me so get them in
Every drink you drink I'll match
To dance our way home, under a dirty early sky
Do what couples do, argue and screw
Oh screw and argue
But I think it'd be different with you

He points over there, he wants to dare me
double dare me I'll go anywhere
He points over there, he wants to dare me
double dare me I'll go anywhere with you

So what did we do in the end
Went to that ridiculous club with your friends
The last time we went we said never ever again
To getting our wallets raped
So I suggested a strip club, with the neon naked girls at the late bar
But you got rowdy with security don't worry baby let them keep their eight 
pounds fifty,
Let's go cause chaos elsewhere, let's go

He points over there, he wants to dare me
double dare me I'll go anywhere
He points over there, he wants to dare me
double dare me I'll go anywhere with you


  Mellow Part                         Strummed Part
e-10---------13--------11-------10---|---10---13---11--10----|
b-11-----11-------11--------11--11---|---11---11---11--10----|
g-10----------------------------10---|---10---10---10--10----|
d------------------------------------|-----------------------|
a------------------------------------|-----------------------|
e------------------------------------|-----------------------|


Let's not do another one tonight
Have a slow one cook for me see no one
All I want is you, and a cold beer
Come over here let me whisper Spanish in your ear (x2)
Amor cariņo, dame otro besito
Amor cariņo, dame otro besito, despacito (x2)

He points over there, he wants to dare me
double dare me I'll go anywhere
He points over there, he wants to dare me
double dare me I'll go anywhere with you...

http://www.molotov-jukebox.co.uk/
Tap to rate this tab
 
# A B C D E F G H I J K L M N O P Q R S T U V W X Y Z