Guitaretab - guitar tabs
Song name
# A B C D E F G H I J K L M N O P Q R S T U V W X Y Z
Home / M / Molotov / Yofo tab

Molotov - Yofo tab

q pdo soy el w q saco el bajo
y ahora saque algo de la guitarra

afinacion normal!!

el intro  y el coro va

|------------------------------------------|
|------------6-6--6-6-------------4-4--4-4-|
|---8--8--6-x6-6-x6-6-------------5-5--5-5-|
|---8--8--6-x6-6-x6-6----8--8--6-x6-6-x6-6-|
|-6-6--6--4-x4-4-x4-4----8--8--6-x6-6-x6-6-|
|----------------------6-6--6--4-x4-4-x4-4-|

luego la primera parte del verso va en puro bajo
luego se agrega la guitarra
[ Tab from: http://www.guitaretab.com/m/molotov/100257.html ]
|-------------------------------------------------|
|-------------------------------------------------|
|-x--6--x--6--------------x--8--x--8--------------|
|-x--6--x--6--x--8--x--8--x--8--x--8--x--6--x--6--|
|-x--4--x--4--x--8--x--8--x--6--x--6--x--6--x--6--|
|-------------x--6--x--6--------------x--4--x--4--|

el solo se los dejo pendiente




..... bno no
|--------------------------------------------------------------------|
|--------------------------------------------------------------------|
|-6-6-6-6b8-8r6-6-6b8r6~---------8-8-8-8/10-10-10--------------------|
|------------------------8-10-8-------------------6---6-6-6/8-8-6-6~-|
|--------------------------------------------------------------------|
|--------------------------------------------------------------------|


es toda la pinche cncion, bna rola
si yu ueyes
Related for Yofo tab
Advertisement will be closed in 10 seconds