Song name
# A B C D E F G H I J K L M N O P Q R S T U V W X Y Z

Molotov - No Me Da Mi Navidad tab

q tranza esta cancion es la primera q subo
spero q les sirva d algo
intro

  P.M-------------------------|
e-0--0---0--0---0-0--0--2-3-0-|
B------0------0-----0-0-------|   REPEAT 3 TIMES
G-----------------------------|
D-----------------------------|
A-----------------------------|
E-----------------------------|

  P.M-------------------------|
e-0--0---0--0---0-0--0--5-7---|
B------0------0-----0-0-------|
G-----------------------------|
D-----------------------------|
A-----------------------------|
E-----------------------------|

verse
no va a caminar mi hermanito
por q anoche se puso hasta el pito
ayuda a este pobre crudito
a que se coma su desayunito
inviertale al rock n roll
es patrimonio de nuestra nacion
queremos llegar a un millon
asi que aflojen ese quiñon

(se repite el intro)

deduscan sus donaciones
para largarnos de vacaciones
etc...

verso: continua el intro

no me da mi navidad
etc...

despues en el siguiente coro
hay una segunda guitarra
q hace esto

e---------------------|
B---------------------|
G---------------------|
D---------------------|
A-2-3-4-5-------------|
E---------------------|

enjoy this tab
Tap to rate this tab
# A B C D E F G H I J K L M N O P Q R S T U V W X Y Z