Song name
# A B C D E F G H I J K L M N O P Q R S T U V W X Y Z

Molotov - Perro Negro Granjero tab

Intro:
---------------------------------------------------|
---------------------------------------------------|
---------------------------------------------------|
--22-2-2-2-2-2-5-7-5-2-----------------------------|
--00-0-0-0-0-0-3-5-3-0-----------------------------|
---------------------------------------------------|

Los versos y el coro es en bajo:::::::

Solo:
----------------------------------------------|
---17------------------171717/12--------------|
---16 muchas veces...--161616/11--------------|
----------------------------------------------|
----------------------------------------------|
----------------------------------------------|

-----------------------------------------------------------|
-----------------------------------------------------------|
-12---------------12-----------------12-----------12~~-----|
---14-12-14--12-14--14-12-14--14-14----14-12-14-14---------|
-----------------------------------------------------------|
-----------------------------------------------------------|

-----------------------------------------------------------|
--12-------------------------------------------------------|
-------------------12----------------12--------12-14~~~~---|
----14-12-14--12-14--14-12-14--14-14---14-12-14------------|
-----------------------------------------------------------|
-----------------------------------------------------------|

---------------------------------------------------|
---------------------------------------------------|
---------------------------------------------------|
--22-2-2-2-2-2-5-7-5-2-----------------------------|
--00-0-0-0-0-0-3-5-3-0-----------------------------|
---------------------------------------------------|

Termina en:
------------------|
------------------|
------------------|
------5-----------|
------5-----------|
------3-----------|
Tap to rate this tab
# A B C D E F G H I J K L M N O P Q R S T U V W X Y Z