Guitaretab - guitar tabs
Song name
# A B C D E F G H I J K L M N O P Q R S T U V W X Y Z

Moments In Grace - Stratus tab

i saw these guys open for further seems forever, and i thought they were the best band
i'd ever seen/heard live.    ...they're great!

this is the way i think it's played:

Dropped-D tuning

intro:
E]------------------------------------------[
B]-1-1-1-3-3-3-1-1-1-4-4-4-------3-3-3------[
G]-------------------------3-3-3------------[
D]------------------------------------------[   4x 
A]------------------------------------------[
D]------------------------------------------[

verse(s):
E]------------------------------------------
B]------------------------------------------
G]--5--5--5--5--X-X-X-X---8--8-8-8-8--8-8-8-
D]--X--X--X--X--X-X-X-X---8--8-8-8-8--8-8-8- C
A]--3--3--3--3--X-X-X-X---6--6-6-6-6--6-6-8-  O
D]------------------------6--6-6-6-6--6-6-6-   NTINUED
                    <<<<<<<<<<<<<<<<<<<<<<<<<<<<<<<<    4X
                   V  -----------------------------------------------------[
                      -----------------------------------------------------[
                      --8--8-8-8-8--7--7-7-7-7--8--8-8-8-8--8--8-8-8-8-----[
                      --X--X-X-X-X--X--X-X-X-X--8--8-8-8-8--8--8-8-8-8-----[
                      --6--6-6-6-6--5--5-5-5-5--6--6-6-6-6--6--6-6-6-6-----[
                      --------------------------6--6-6-6-6--6--6-6-6-6-----[
[ Tab from: http://www.guitaretab.com/m/moments-in-grace/53096.html ]
chorus:
E]----------------------------------------[     ]--------------------[fourth
B]----------------------------------------[     ]--------------------[time
G]-----------------------5----------------[     ]--------------------[
D]--3----------5---------5--------6-------[ 3x  ]-3-----5------6-----[
A]--3----------5---------3--------6-------[     ]-3-----5------6-----[
D]--3----------5------------------6-------[     ]-3-----5------6-----[

^go to verse
^go to chorus

post-chorus:
E]----------------------[   ]---------------------[
B]----------------------[   ]---------------------[
G]----------------------[   ]---------------5-----[
D]---6-----5-----3------[3X ]---6-----5-----5-----[ 4th
A]---6-----5-----3------[   ]---6-----5-----3-----[ time
D]---6-----5-----3------[   ]---6-----5-----------[

go to verse^

post-verse(outro)
E]---------------------------------------------
B]---------------------------------------------
G]---5--5--5--5--x-x-x-x---8--8--8--10-10-10--- C
D]---x--x--x--x--x-x-x-x---x--x--x--x--x--x----  O
A]---3--3--3--3--x-x-x-x---6--6--6--8--8--8----   N
D]---------------------------------------------    TINUED
                                                <<<<<<<<<<
  --------------------------------------[              4X
  --------------------------------------[            
  --5--5--5--7--7--7--3--3--3--3--3--3--[
  --X--X--X--X--X--X--X--X--X--X--X--X--[    
  --3--3--3--5--5--5--1--1--1--1--1--1--[
  --------------------------------------[