Song name
# A B C D E F G H I J K L M N O P Q R S T U V W X Y Z

Moments In Tragedy - A Bullet Called Love tab

Song - A Bullet Called Love
Artist - Moments In Tragedy
Album - Moments In Tragedy

Tuning: eADGBE

Chords:

   G    Cadd2    A7sus4
E|-3-   E|-0-    E|-3-|
B|-0-   B|-3-    B|-3-|
G|-0-   G|-0-    G|-2-|
D|-0-   D|-2-    D|-2-|
A|-2-   A|-3-    A|-0-|
e|-3-   e|-x-    e|-x-|

Key:
~ = let ring

Intro:

E|-----------------------------------------|
B|----0------------------------------------|
G|------0-----------0-----------0----------|
D|----------------0---0-------0---0~-------|
A|-------------3------------3--------------|
e|--3--------------------------------------|


Verse 1:
                G                                 Cadd2
Just when you think, that everything, is just fine
G                                               Cadd2
Well you’ll soon realize that you’ve been wrong, this whole time
G                                                        Cadd2
Soft summer lips soft as snow, red as a winter ruby rose, but still, your so wrong
G                                       Cadd2
Well it takes a lot, to sing this song, for you, this song for you


Chorus 1,2, and 3:

G
Love is patient (you say it all the time!)
Cadd2
Love is kind (you told me we’d be fine!)
A7sus4                        Cadd2
Love is like a loaded gun and can blow your mind
G
Love can grow (it dies every time!)
Cadd2
Love will fade (you told me you were mine!)
A7sus4                        Cadd2
Love for you is here to stay, hopefully to blow you away


Play the intro again after the first chorus before verse 2.


Verse 2:

G                                                                   Cadd2
Just as my angel shines down from, the skies above and tells me love, is so wrong
G                                                                    Cadd2
Because I was cheated, I was robbed, of the one thing I thought I needed, which is love 
I was so wrong.

Bridge:

G  Cadd2  A7sus4  Cadd2

Repeat as many times as needed, I think its 3 times repeated. Just listen to the song 
you’ll get it no problem.


Outro:

G  Cadd2  A7sus4  Cadd2

Play that once and then...


E|------------------------------------------3~----|
B|-----0------------------------------------0~----|
G|-------0--------0---------0---------------0~----|
D|--------------0---0-----0---0~------------0~----|
A|------------3---------3-------------------2~----|
e|---3----------------------------x2--------3~----|

AND THERE YOU HAVE IT! Any questions, comment, suggestions, or anything, my email is 
Enjoy!!!
Tap to rate this tab
# A B C D E F G H I J K L M N O P Q R S T U V W X Y Z