Song name
# A B C D E F G H I J K L M N O P Q R S T U V W X Y Z

Mommas Liquor Cabinet - Song Title tab

This is a Song Title by mommas liquor cabinet. 
Copyright 2002


INTRO(2x):
------------------------------------------------------------
------------------------------------------------------------
-----0---------------------------------------------------------2---2---0--------0---------------0-------------0----------3-------3---0----2---2---0--0----5---5---0-0---1---1---0-0-
----------------3-------3-------5-------5-----1-------1-----

VERSE(4x):
(palm muted)

------------------------------------------------------------
------------------------------------------------------------
------------------------------------------------------------
3-3-5-3-3-5-3-3---------------------------------------------
3-3-3-3-3-3-3-3--3-3-5-3-3-5-3-3--5-5-7-5-5-7-5-5--1-1-3-1-1
-----------------3-3-3-3-3-3-3-3--5-5-5-5-5-5-5-5--1-1-1-1-1

------------------------------------------------------------
------------------------------------------------------------
------------------------------------------------------------
------------------------------------------------------------
3-1-1-------------------------------------------------------
1-1-1-------------------------------------------------------

CHORUS(4x):

---------------------------------------------------------
---------------------------------------------------------
---------------------------------------------------------555555555------------------------------------------------
333333333-555555555--333333333333---777------------------
----------333333333--111111111111---555------------------

VERSE:

CHORUS:
_________

CHORUS:

VERSE(1x):
(slower)
Tap to rate this tab
# A B C D E F G H I J K L M N O P Q R S T U V W X Y Z