Song name
# A B C D E F G H I J K L M N O P Q R S T U V W X Y Z

Mon - Aprendiendonos tab

Intro:

Guitar 1
e|---------------------------------------------------------------------------|
B|---------------------------------------------------------------------------|
G|--8-9-8-9-11---8---8-9-8---8-9-8-9-11---8---8-9-8---8-9-8-9-11---8---8-9-8-|
D|-------------9---9--------------------9---9--------------------9---9-------|
A|---------------------------------------------------------------------------|
E|---------------------------------------------------------------------------|

e|-----12----12----12----12----12-|
B|--10----10----10----10----10----|
G|--------------------------------|
D|--------------------------------| x2
A|--------------------------------|
E|--------------------------------|

Guitar2

e|---------------------------------------|
B|---------------------------------------|
G|---------------------------------------|
D|--77777777-22222222-6666-4444-77777777-|x2
A|--77777777-22222222-6666-4444-77777777-|
E|--55555555-00000000-4444-2222-55555555-|

Verse 1:

Guitar 1

e|-----14----12----10----10----10-------------------------|
B|--12----12----12----12----12-------12----14----15-14-12-|
G|--------------------------------11----11----11----------|
D|--------------------------------------------------------| x2 
A|--------------------------------------------------------|
E|--------------------------------------------------------|

Guitar 2
Aqui te recomiendo que escuches la cancion para saber el ritmo, asi que solo pongo los acordes :)

e|--0--0--0--0--0--0--0--0--|
B|--0--2--0--2--0--2--0--2--|
G|--1--2--1--2--1--2--1--2--|
D|--2--2--2--2--2--2--2--2--| x2
A|--2--0--2--0--2--0--2--0--|
E|--0--0--0--0--0--0--0--0--|

Chorus 1:

Guitar 2
e|---------------------------------------|
B|---------------------------------------|
G|---------------------------------------|
D|--77777777-22222222-6666-4444-77777777-|x3
A|--77777777-22222222-6666-4444-77777777-|
E|--55555555-00000000-4444-2222-55555555-|

Verse 2

Guitar 1

e|-----14----12----10----10----10-------------------------|
B|--12----12----12----12----12-------12----14----15-14-12-|
G|--------------------------------11----11----11----------|
D|--------------------------------------------------------| x2 
A|--------------------------------------------------------|
E|--------------------------------------------------------|

Guitar 2

e|--0--0--0--0--0--0--0--0--|
B|--0--2--0--2--0--2--0--2--|
G|--1--2--1--2--1--2--1--2--|
D|--2--2--2--2--2--2--2--2--| x2
A|--2--0--2--0--2--0--2--0--|
E|--0--0--0--0--0--0--0--0--|

Chorus 2

Guitar 2
La guitar 1 no toca durante esta parte de acordes.

e|---------------------------------------|
B|---------------------------------------|
G|---------------------------------------|
D|--77777777-22222222-6666-4444-77777777-| x3
A|--77777777-22222222-6666-4444-77777777-|
E|--55555555-00000000-4444-2222-55555555-|

Guitar 1
e|---------------------------------------------------------------------------|
B|---------------------------------------------------------------------------|
G|--8-9-8-9-11---8---8-9-8---8-9-8-9-11---8---8-9-8---8-9-8-9-11---8---8-9-8-|
D|-------------9---9--------------------9---9--------------------9---9-------|
A|---------------------------------------------------------------------------|
E|---------------------------------------------------------------------------|

e|-----12----12----12----12----12-|
B|--10----10----10----10----10----|
G|--------------------------------|
D|--------------------------------| x5
A|--------------------------------|
E|--------------------------------|

Guitar 2

e|---------------------------------------|
B|---------------------------------------|
G|---------------------------------------|
D|--77777777-22222222-6666-4444-77777777-| x5
A|--77777777-22222222-6666-4444-77777777-|
E|--55555555-00000000-4444-2222-55555555-|

Hasta el final

http://www.mundomon.com/
Tap to rate this tab
# A B C D E F G H I J K L M N O P Q R S T U V W X Y Z